0
SECTION
2
HEADER
9
$INSUNITS
70
4
9
$ACADVER
1
AC1014
9
$HANDSEED
5
FFFF
0
ENDSEC
0
SECTION
2
TABLES
0
TABLE
2
VPORT
5
8
100
AcDbSymbolTable
0
ENDTAB
0
TABLE
2
LTYPE
5
5
100
AcDbSymbolTable
0
LTYPE
5
14
100
AcDbSymbolTableRecord
100
AcDbLinetypeTableRecord
2
BYBLOCK
70
0
0
LTYPE
5
15
100
AcDbSymbolTableRecord
100
AcDbLinetypeTableRecord
2
BYLAYER
70
0
0
ENDTAB
0
TABLE
2
LAYER
5
2
100
AcDbSymbolTable
70
2
0
LAYER
5
50
100
AcDbSymbolTableRecord
100
AcDbLayerTableRecord
2
0
70
0
6
CONTINUOUS
0
ENDTAB
0
TABLE
2
STYLE
5
3
100
AcDbSymbolTable
70
1
0
STYLE
5
11
100
AcDbSymbolTableRecord
100
AcDbTextStyleTableRecord
2
STANDARD
70
0
0
ENDTAB
0
TABLE
2
VIEW
5
6
100
AcDbSymbolTable
70
0
0
ENDTAB
0
TABLE
2
UCS
5
7
100
AcDbSymbolTable
70
0
0
ENDTAB
0
TABLE
2
APPID
5
9
100
AcDbSymbolTable
70
2
0
APPID
5
12
100
AcDbSymbolTableRecord
100
AcDbRegAppTableRecord
2
ACAD
70
0
0
ENDTAB
0
TABLE
2
DIMSTYLE
5
A
100
AcDbSymbolTable
70
1
0
ENDTAB
0
TABLE
2
BLOCK_RECORD
5
1
100
AcDbSymbolTable
70
1
0
BLOCK_RECORD
5
1F
100
AcDbSymbolTableRecord
100
AcDbBlockTableRecord
2
*MODEL_SPACE
0
BLOCK_RECORD
5
1B
100
AcDbSymbolTableRecord
100
AcDbBlockTableRecord
2
*PAPER_SPACE
0
ENDTAB
0
ENDSEC
0
SECTION
2
BLOCKS
0
BLOCK
5
20
100
AcDbEntity
100
AcDbBlockBegin
2
*MODEL_SPACE
0
ENDBLK
5
21
100
AcDbEntity
100
AcDbBlockEnd
0
BLOCK
5
1C
100
AcDbEntity
100
AcDbBlockBegin
2
*PAPER_SPACE
0
ENDBLK
5
1D
100
AcDbEntity
100
AcDbBlockEnd
0
ENDSEC
0
SECTION
2
ENTITIES
0
CIRCLE
5
100
100
AcDbEntity
8
0
100
AcDbCircle
10
-190.49990539549998
20
85.724917602530013
30
0
40
1.6250000000000142
210
0
220
0
230
1
0
LWPOLYLINE
5
101
100
AcDbEntity
8
0
100
AcDbPolyline
90
8
70
1
43
0.0
10
-116.53750000000002
20
73.125
10
-116.53750000000002
20
60.225000000000009
42
0.4142135623730856
10
-115.98750000000003
20
59.675000000000011
10
-103.08750000000003
20
59.674999999999997
42
0.41421356237309975
10
-102.53750000000002
20
60.225000000000009
10
-102.53750000000004
20
73.125
42
0.4142135623730856
10
-103.08750000000003
20
73.674999999999997
10
-115.98750000000003
20
73.674999999999997
42
0.4142135623730856
0
LWPOLYLINE
5
102
100
AcDbEntity
8
0
100
AcDbPolyline
90
8
70
1
43
0.0
10
-97.487500000000011
20
73.125
10
-97.487500000000011
20
60.225000000000009
42
0.4142135623730856
10
-96.937500000000014
20
59.675000000000011
10
-84.037500000000023
20
59.674999999999997
42
0.41421356237309975
10
-83.487500000000026
20
60.225000000000009
10
-83.487500000000026
20
73.125
42
0.4142135623730856
10
-84.037500000000023
20
73.674999999999997
10
-96.937500000000014
20
73.674999999999997
42
0.4142135623730856
0
LWPOLYLINE
5
103
100
AcDbEntity
8
0
100
AcDbPolyline
90
8
70
1
43
0.0
10
-78.4375
20
73.125
10
-78.4375
20
60.225000000000009
42
0.41421356237307611
10
-77.887500000000003
20
59.675000000000011
10
-64.987500000000011
20
59.674999999999997
42
0.41421356237309503
10
-64.4375
20
60.225000000000009
10
-64.437500000000014
20
73.125
42
0.41421356237307611
10
-64.987500000000011
20
73.674999999999997
10
-77.887500000000003
20
73.674999999999997
42
0.41421356237307611
0
LWPOLYLINE
5
104
100
AcDbEntity
8
0
100
AcDbPolyline
90
8
70
1
43
0.0
10
-59.387499999999989
20
73.125
10
-59.387499999999989
20
60.225000000000009
42
0.41421356237307611
10
-58.837499999999991
20
59.675000000000011
10
-45.9375
20
59.674999999999997
42
0.41421356237309503
10
-45.387500000000003
20
60.225000000000009
10
-45.387500000000003
20
73.125
42
0.41421356237307611
10
-45.9375
20
73.674999999999997
10
-58.837499999999991
20
73.674999999999997
42
0.41421356237307611
0
LWPOLYLINE
5
105
100
AcDbEntity
8
0
100
AcDbPolyline
90
8
70
1
43
0.0
10
-37.019250000000021
20
75.275000000000006
10
-37.019250000000021
20
61.07500000000001
42
0.41421356237309503
10
-36.469250000000031
20
60.525000000000013
10
-30.269249999999992
20
60.525000000000013
42
0.41421356237309742
10
-29.719249999999995
20
61.07500000000001
10
-29.719249999999988
20
75.275000000000006
42
0.41421356237309503
10
-30.269249999999985
20
75.825000000000003
10
-36.469250000000031
20
75.825000000000003
42
0.41421356237309503
0
LWPOLYLINE
5
106
100
AcDbEntity
8
0
100
AcDbPolyline
90
20
70
1
43
0.0
10
-275.53799999999995
20
18.67499999999999
10
-281.73800000000006
20
18.67499999999999
42
0.41421356237309859
10
-282.28800000000007
20
18.124999999999986
10
-282.28800000000007
20
16.524999999999999
10
-282.67499999999995
20
16.524999999999999
42
0.41421356237312695
10
-283.22499999999997
20
15.975000000000001
10
-283.22500000000002
20
3.0750000000000011
42
0.4142135623730942
10
-282.67499999999995
20
2.5250000000000039
10
-250.72500000000005
20
2.5250000000000039
42
0.4142135623731264
10
-250.17500000000007
20
3.0750000000000011
10
-250.17499999999998
20
15.975000000000001
42
0.4142135623730927
10
-250.72500000000005
20
16.52500000000007
10
-251.11200000000002
20
16.524999999999999
10
-251.11200000000002
20
18.124999999999993
42
0.41421356237309503
10
-251.66200000000003
20
18.67499999999999
10
-257.86200000000002
20
18.67499999999999
42
0.41421356237309503
10
-258.41200000000003
20
18.124999999999993
10
-258.41200000000003
20
16.524999999999999
10
-274.98799999999989
20
16.524999999999999
10
-274.98799999999989
20
18.124999999999915
42
0.41421356237309859
0
LWPOLYLINE
5
107
100
AcDbEntity
8
0
100
AcDbPolyline
90
8
70
1
43
0.0
10
-279.9067500000001
20
53.225000000000009
10
-279.9067500000001
20
39.025000000000077
42
0.41421356237309503
10
-279.35675000000003
20
38.475000000000009
10
-273.15675000000005
20
38.475000000000009
42
0.41421356237309503
10
-272.60675000000003
20
39.025000000000006
10
-272.60675000000003
20
53.22500000000008
42
0.41421356237309503
10
-273.15674999999999
20
53.775000000000006
10
-279.35675000000009
20
53.775000000000006
42
0.41421356237309503
0
LWPOLYLINE
5
108
100
AcDbEntity
8
0
100
AcDbPolyline
90
36
70
1
43
0.0
10
-304.27505798339843
20
2.5249817113069994
10
-304.27505798339837
20
92.724996970098317
42
-0.41421356237316787
10
-302.27505798339797
20
94.724996970098218
10
-293.72408810118566
20
94.724996970097664
42
0.40645566946649708
10
-290.02408810118658
20
98.328008869031891
42
-0.97378699971190918
10
-284.52602786560982
20
98.328008869031862
42
0.40645566946655171
10
-280.82602786561006
20
94.724996970098829
10
-203.80742143451897
20
94.724996970098232
42
0.40645566946632744
10
-200.10742143451921
20
98.328008869031848
42
-0.97378699971191029
10
-194.6093611989437
20
98.328008869031862
42
0.40645566946651807
10
-190.90936119894369
20
94.724996970098289
10
-23.974030117787773
20
94.724996970098232
42
0.40645566946639089
10
-20.274030117788307
20
98.328008869031862
42
-0.97378699971180849
10
-14.775969882212225
20
98.328008869031876
42
0.40645566946672296
10
-11.075969882212462
20
94.72499697009836
10
-2.5249999999999764
20
94.724996970097919
42
-0.41421356237317797
10
-0.52500000000009095
20
92.724996970098601
10
-0.52500000000009095
20
2.5249817113066801
42
-0.41421356237317819
10
-2.5249999999999773
20
0.52498171130736182
10
-11.075969882212458
20
0.52498171130736293
42
0.40645566946652545
10
-14.775969882211943
20
-3.0780301876265428
42
-0.97378699971211191
10
-20.274030117787444
20
-3.0780301876265437
42
0.40645566946659278
10
-23.974030117787777
20
0.52498171130759275
10
-100.99263654887922
20
0.52498171130650806
42
0.40645566946641576
10
-104.69263654887897
20
-3.0780301876265463
42
-0.97378699971180949
10
-110.19069678445447
20
-3.0780301876265428
42
0.40645566946646017
10
-113.89069678445424
20
0.52498171130704208
10
-190.90936119894369
20
0.52498171130736238
42
0.40645566946641026
10
-194.60936119894254
20
-3.0780301876265699
42
-0.97378699971200922
10
-200.10742143451924
20
-3.0780301876265597
42
0.40645566946657607
10
-203.807421434519
20
0.52498171130730853
10
-280.8260278656104
20
0.52498171130736182
42
0.40645566946641226
10
-284.52602786560988
20
-3.0780301876265792
42
-0.973786999712004
10
-290.02408810118538
20
-3.0780301876265477
42
0.40645566946652889
10
-293.72408810118566
20
0.52498171130732629
10
-302.27505798339797
20
0.52498171130735738
42
-0.41421356237321016
0
LWPOLYLINE
5
109
100
AcDbEntity
8
0
100
AcDbPolyline
90
8
70
1
43
0.0
10
-256.03075000000001
20
53.225000000000009
10
-256.03075000000001
20
39.02500000000007
42
0.41421356237309503
10
-255.48074999999997
20
38.475000000000009
10
-249.28075000000001
20
38.475000000000001
42
0.41421356237309503
10
-248.73075
20
39.024999999999999
10
-248.73075
20
53.225000000000016
42
0.41421356237309503
10
-249.28075000000001
20
53.775000000000006
10
-255.48075000000006
20
53.775000000000006
42
0.41421356237309503
0
LWPOLYLINE
5
110
100
AcDbEntity
8
0
100
AcDbPolyline
90
8
70
1
43
0.0
10
-288.27499999999992
20
41.174999999999997
10
-288.27499999999998
20
54.075000000000003
42
0.4142135623730856
10
-288.82499999999993
20
54.625
10
-301.72500000000002
20
54.625
42
0.41421356237310453
10
-302.27500000000009
20
54.075000000000003
10
-302.27500000000009
20
41.174999999999997
42
0.41421356237309503
10
-301.72500000000002
20
40.624999999999929
10
-288.82499999999993
20
40.625
42
0.41421356237310453
0
LWPOLYLINE
5
111
100
AcDbEntity
8
0
100
AcDbPolyline
90
8
70
1
43
0.0
10
-184.61875000000006
20
91.324999999999989
10
-184.61875000000006
20
77.125000000000071
42
0.41421356237309503
10
-184.06874999999999
20
76.575000000000003
10
-177.86875000000003
20
76.575000000000003
42
0.41421356237309503
10
-177.31875000000002
20
77.125
10
-177.31875000000002
20
91.324999999999989
42
0.41421356237309503
10
-177.86875000000003
20
91.874999999999986
10
-184.06875000000008
20
91.875
42
0.41421356237309503
0
LWPOLYLINE
5
112
100
AcDbEntity
8
0
100
AcDbPolyline
90
8
70
1
43
0.0
10
-89.375
20
91.324999999999704
10
-89.375
20
77.125
42
0.41421356237309503
10
-88.825000000000003
20
76.575000000000003
10
-77.86875000000002
20
76.575000000000003
42
0.41421356237309503
10
-77.318750000000037
20
77.125
10
-77.318750000000023
20
91.324999999999676
42
0.41421356237309503
10
-77.86875000000002
20
91.874999999999687
10
-88.825000000000003
20
91.874999999999716
42
0.41421356237309503
0
LWPOLYLINE
5
113
100
AcDbEntity
8
0
100
AcDbPolyline
90
14
70
1
43
0.0
10
-203.125
20
76.575000000000003
10
-196.92499999999995
20
76.575000000000003
42
0.41421356237309503
10
-196.37499999999994
20
77.125
10
-196.37499999999994
20
78.725000000000009
10
-195.95624999999998
20
78.725000000000009
42
0.41421356237310453
10
-195.40625
20
79.275000000000006
10
-195.40625
20
92.174999999999997
42
0.41421356237309503
10
-195.95624999999998
20
92.724999999999994
10
-208.85624999999999
20
92.724999999999994
42
0.41421356237316126
10
-209.40625000000006
20
92.174999999999997
10
-209.40625000000006
20
79.275000000000006
42
0.41421356237310453
10
-208.85625000000005
20
78.725000000000009
10
-203.67500000000001
20
78.725000000000009
10
-203.67500000000001
20
77.125
42
0.41421356237309503
0
LWPOLYLINE
5
114
100
AcDbEntity
8
0
100
AcDbPolyline
90
8
70
1
43
0.0
10
-149.87499999999997
20
92.174999999999997
10
-149.87499999999997
20
79.275000000000006
42
0.4142135623730856
10
-149.32499999999999
20
78.725000000000009
10
-124.51875000000001
20
78.725000000000009
42
0.4142135623730856
10
-123.96875000000001
20
79.275000000000006
10
-123.96875000000001
20
92.174999999999997
42
0.4142135623730856
10
-124.51875000000001
20
92.724999999999994
10
-149.32499999999999
20
92.724999999999994
42
0.4142135623730856
0
LWPOLYLINE
5
115
100
AcDbEntity
8
0
100
AcDbPolyline
90
8
70
1
43
0.0
10
-68.912499999999994
20
92.174999999999997
10
-68.912499999999994
20
79.275000000000006
42
0.41421356237307611
10
-68.362499999999997
20
78.725000000000009
10
-53.08125000000004
20
78.725000000000009
42
0.41421356237307611
10
-52.531250000000043
20
79.275000000000006
10
-52.531249999999972
20
92.174999999999997
42
0.41421356237309503
10
-53.08125000000004
20
92.724999999999994
10
-68.362499999999997
20
92.724999999999994
42
0.41421356237307611
0
LWPOLYLINE
5
116
100
AcDbEntity
8
0
100
AcDbPolyline
90
8
70
1
43
0.0
10
-45.09999999999998
20
92.174999999999997
10
-45.09999999999998
20
79.275000000000006
42
0.41421356237307611
10
-44.549999999999983
20
78.725000000000009
10
-29.268750000000026
20
78.725000000000009
42
0.4142135623730856
10
-28.718750000000028
20
79.275000000000006
10
-28.718750000000028
20
92.174999999999997
42
0.41421356237308082
10
-29.268750000000026
20
92.724999999999994
10
-44.549999999999983
20
92.724999999999994
42
0.41421356237307611
0
LWPOLYLINE
5
117
100
AcDbEntity
8
0
100
AcDbPolyline
90
8
70
1
43
0.0
10
-21.287499999999966
20
92.174999999999997
10
-21.287499999999966
20
79.275000000000006
42
0.4142135623730856
10
-20.737499999999969
20
78.725000000000009
10
-5.4562500000000114
20
78.725000000000009
42
0.41421356237308676
10
-4.9062500000000142
20
79.275000000000006
10
-4.9062500000000142
20
92.174999999999997
42
0.41421356237308204
10
-5.4562500000000114
20
92.724999999999994
10
-20.737499999999969
20
92.724999999999994
42
0.41421356237308082
0
LWPOLYLINE
5
118
100
AcDbEntity
8
0
100
AcDbPolyline
90
8
70
1
43
0.0
10
-14.43125000000002
20
60.225000000000009
10
-14.43125000000002
20
73.125
42
0.41421356237308676
10
-14.981250000000017
20
73.674999999999997
10
-27.881250000000009
20
73.674999999999997
42
0.4142135623730856
10
-28.431250000000006
20
73.125
10
-28.431250000000006
20
60.225000000000009
42
0.4142135623730856
10
-27.881250000000009
20
59.675000000000011
10
-14.981250000000017
20
59.675000000000011
42
0.41421356237308676
0
LWPOLYLINE
5
119
100
AcDbEntity
8
0
100
AcDbPolyline
90
8
70
1
43
0.0
10
-131.11249999999998
20
41.174999999999997
10
-131.11249999999998
20
54.075000000000003
42
0.4142135623730856
10
-131.66249999999997
20
54.625
10
-144.56249999999997
20
54.625
42
0.4142135623730856
10
-145.11249999999995
20
54.075000000000003
10
-145.11250000000004
20
41.174999999999997
42
0.41421356237309503
10
-144.56249999999997
20
40.625
10
-131.66249999999997
20
40.625
42
0.4142135623730856
0
LWPOLYLINE
5
120
100
AcDbEntity
8
0
100
AcDbPolyline
90
8
70
1
43
0.0
10
-93.012500000000017
20
41.174999999999997
42
-0.4142135623730856
10
-93.562500000000028
20
40.625
10
-106.46250000000002
20
40.625000000000014
42
-0.4142135623730856
10
-107.01250000000002
20
41.174999999999997
10
-107.01250000000003
20
54.075000000000003
42
-0.4142135623730856
10
-106.46250000000002
20
54.625
10
-93.562500000000028
20
54.624999999999986
42
-0.4142135623730856
10
-93.012500000000031
20
54.075000000000003
0
LWPOLYLINE
5
121
100
AcDbEntity
8
0
100
AcDbPolyline
90
8
70
1
43
0.0
10
-125.51250000000003
20
40.625000000000014
42
-0.4142135623730856
10
-126.06250000000003
20
41.174999999999997
10
-126.06250000000004
20
54.075000000000003
42
-0.4142135623730856
10
-125.51250000000003
20
54.625
10
-112.61250000000004
20
54.625000000000071
42
-0.41421356237309503
10
-112.06249999999997
20
54.075000000000003
10
-112.06250000000003
20
41.174999999999997
42
-0.4142135623730856
10
-112.61250000000004
20
40.625
0
LWPOLYLINE
5
122
100
AcDbEntity
8
0
100
AcDbPolyline
90
8
70
1
43
0.0
10
-150.16249999999997
20
41.174999999999997
42
-0.4142135623730856
10
-150.71249999999998
20
40.625
10
-163.61249999999998
20
40.624999999999929
42
-0.41421356237309503
10
-164.16250000000005
20
41.174999999999997
10
-164.16249999999997
20
54.075000000000003
42
-0.41421356237310453
10
-163.61249999999998
20
54.625
10
-150.71249999999998
20
54.624999999999986
42
-0.4142135623730856
10
-150.16249999999999
20
54.075000000000003
0
LWPOLYLINE
5
123
100
AcDbEntity
8
0
100
AcDbPolyline
90
8
70
1
43
0.0
10
-159.68750000000006
20
60.225000000000009
10
-159.6875
20
73.125
42
0.41421356237311868
10
-160.23750000000007
20
73.675000000000068
10
-173.13749999999999
20
73.674999999999997
42
0.41421356237310453
10
-173.6875
20
73.125
10
-173.6875
20
60.225000000000009
42
0.41421356237310453
10
-173.13749999999999
20
59.675000000000011
10
-160.23750000000007
20
59.675000000000011
42
0.4142135623730856
0
LWPOLYLINE
5
124
100
AcDbEntity
8
0
100
AcDbPolyline
90
8
70
1
43
0.0
10
-197.78750000000002
20
60.225000000000009
42
-0.41421356237310919
10
-198.33750000000003
20
59.674999999999997
10
-211.23750000000001
20
59.674999999999997
42
-0.41421356237310453
10
-211.78750000000002
20
60.225000000000009
10
-211.78750000000002
20
73.125
42
-0.41421356237310453
10
-211.23750000000001
20
73.674999999999997
10
-198.33750000000003
20
73.675000000000011
42
-0.41421356237310453
10
-197.78750000000002
20
73.125
0
LWPOLYLINE
5
125
100
AcDbEntity
8
0
100
AcDbPolyline
90
8
70
1
43
0.0
10
-140.63749999999999
20
60.225000000000009
10
-140.63749999999999
20
73.125
42
0.4142135623730856
10
-141.1875
20
73.674999999999997
10
-154.08749999999998
20
73.674999999999997
42
0.4142135623730856
10
-154.63749999999999
20
73.125
10
-154.63749999999999
20
60.225000000000009
42
0.4142135623730856
10
-154.08749999999998
20
59.675000000000011
10
-141.1875
20
59.675000000000011
42
0.4142135623730856
0
LWPOLYLINE
5
126
100
AcDbEntity
8
0
100
AcDbPolyline
90
8
70
1
43
0.0
10
-178.73750000000001
20
60.225000000000009
10
-178.73750000000001
20
73.125
42
0.41421356237310453
10
-179.28750000000002
20
73.674999999999997
10
-192.1875
20
73.674999999999997
42
0.41421356237310453
10
-192.73750000000001
20
73.125
10
-192.73750000000007
20
60.225000000000009
42
0.41421356237309503
10
-192.1875
20
59.675000000000011
10
-179.28750000000002
20
59.675000000000011
42
0.41421356237310453
0
LWPOLYLINE
5
127
100
AcDbEntity
8
0
100
AcDbPolyline
90
8
70
1
43
0.0
10
-256.48124999999999
20
59.674999999999997
42
-0.41421356237310453
10
-257.03125
20
60.225000000000009
10
-257.03125
20
73.125
42
-0.41421356237310453
10
-256.48124999999999
20
73.674999999999997
10
-243.58125000000001
20
73.675000000000011
42
-0.41421356237310453
10
-243.03125
20
73.125
10
-243.03125
20
60.225000000000009
42
-0.41421356237310919
10
-243.58125000000001
20
59.674999999999997
0
LWPOLYLINE
5
128
100
AcDbEntity
8
0
100
AcDbPolyline
90
8
70
1
43
0.0
10
-260.63125000000002
20
60.225000000000009
42
-0.41421356237310919
10
-261.18124999999998
20
59.674999999999997
10
-262.08125000000001
20
59.674999999999997
42
-0.41421356237310453
10
-262.63125000000002
20
60.225000000000009
10
-262.63125000000002
20
73.125
42
-0.41421356237310453
10
-262.08125000000001
20
73.674999999999997
10
-261.18124999999998
20
73.675000000000011
42
-0.41421356237310453
10
-260.63125000000002
20
73.125
0
LWPOLYLINE
5
129
100
AcDbEntity
8
0
100
AcDbPolyline
90
8
70
1
43
0.0
10
-238.88125000000002
20
59.674999999999997
42
-0.41421356237310453
10
-239.43125000000003
20
60.225000000000009
10
-239.43125000000003
20
73.125
42
-0.41421356237310453
10
-238.88125000000002
20
73.674999999999997
10
-237.98124999999999
20
73.674999999999912
42
-0.4142135623730856
10
-237.43125000000006
20
73.125
10
-237.43124999999998
20
60.225000000000009
42
-0.41421356237310919
10
-237.98124999999999
20
59.674999999999997
0
LWPOLYLINE
5
130
100
AcDbEntity
8
0
100
AcDbPolyline
90
8
70
1
43
0.0
10
-282.67499999999995
20
59.67499999999994
42
-0.41421356237309503
10
-283.22500000000002
20
60.225000000000009
10
-283.22499999999997
20
73.125
42
-0.41421356237310453
10
-282.67499999999995
20
73.674999999999997
10
-269.77499999999998
20
73.675000000000011
42
-0.41421356237310453
10
-269.22500000000002
20
73.125
10
-269.22500000000002
20
60.225000000000009
42
-0.41421356237310919
10
-269.77499999999998
20
59.674999999999997
0
LWPOLYLINE
5
131
100
AcDbEntity
8
0
100
AcDbPolyline
90
8
70
1
43
0.0
10
-288.27499999999992
20
60.225000000000009
42
-0.41421356237310919
10
-288.82499999999993
20
59.674999999999997
10
-301.72500000000002
20
59.67499999999994
42
-0.41421356237309503
10
-302.27500000000009
20
60.225000000000009
10
-302.27499999999998
20
73.125
42
-0.41421356237310453
10
-301.72500000000002
20
73.674999999999997
10
-288.82499999999993
20
73.674999999999912
42
-0.4142135623730856
10
-288.27499999999998
20
73.125
0
LWPOLYLINE
5
132
100
AcDbEntity
8
0
100
AcDbPolyline
90
8
70
1
43
0.0
10
-216.83749999999998
20
60.225000000000009
42
-0.41421356237310919
10
-217.38749999999996
20
59.674999999999997
10
-230.28750000000002
20
59.674999999999997
42
-0.41421356237310453
10
-230.83750000000003
20
60.225000000000009
10
-230.83750000000003
20
73.125
42
-0.41421356237310453
10
-230.28750000000002
20
73.674999999999997
10
-217.38749999999996
20
73.675000000000011
42
-0.41421356237310453
10
-216.83749999999998
20
73.125
0
LWPOLYLINE
5
133
100
AcDbEntity
8
0
100
AcDbPolyline
90
8
70
1
43
0.0
10
-78.725000000000023
20
3.0750000000000011
10
-78.725000000000023
20
15.975000000000001
42
0.41421356237308676
10
-79.27500000000002
20
16.524999999999999
10
-92.175000000000011
20
16.524999999999999
42
0.41421356237309154
10
-92.725000000000009
20
15.975000000000001
10
-92.725000000000009
20
3.0750000000000011
42
0.4142135623730912
10
-92.175000000000011
20
2.5250000000000039
10
-79.27500000000002
20
2.5250000000000039
42
0.41421356237308643
0
LWPOLYLINE
5
134
100
AcDbEntity
8
0
100
AcDbPolyline
90
8
70
1
43
0.0
10
-193.02500000000003
20
3.0750000000000011
42
-0.4142135623731264
10
-193.57500000000002
20
2.5250000000000039
10
-206.47500000000002
20
2.5250000000000163
42
-0.4142135623731264
10
-207.02500000000001
20
3.0750000000000011
10
-207.02500000000001
20
15.975000000000001
42
-0.41421356237312695
10
-206.47500000000002
20
16.524999999999999
10
-193.57500000000002
20
16.524999999999988
42
-0.41421356237312695
10
-193.02500000000003
20
15.975000000000001
0
LWPOLYLINE
5
135
100
AcDbEntity
8
0
100
AcDbPolyline
90
8
70
1
43
0.0
10
-212.07500000000005
20
3.0750000000000011
42
-0.4142135623731264
10
-212.62500000000003
20
2.5250000000000039
10
-225.52500000000003
20
2.5250000000000163
42
-0.4142135623731264
10
-226.07500000000002
20
3.0750000000000011
10
-226.07500000000002
20
15.975000000000001
42
-0.41421356237312695
10
-225.52500000000003
20
16.524999999999999
10
-212.62500000000003
20
16.524999999999988
42
-0.41421356237312695
10
-212.07500000000005
20
15.975000000000001
0
LWPOLYLINE
5
136
100
AcDbEntity
8
0
100
AcDbPolyline
90
8
70
1
43
0.0
10
-2.5249999999999773
20
3.0750000000000011
42
-0.41421356237309442
10
-3.0749999999999744
20
2.5250000000000039
10
-15.974999999999966
20
2.5250000000000035
42
-0.41421356237309537
10
-16.524999999999963
20
3.0750000000000011
10
-16.524999999999963
20
15.975000000000001
42
-0.41421356237309742
10
-15.974999999999966
20
16.524999999999999
10
-3.0749999999999744
20
16.524999999999999
42
-0.41421356237309537
10
-2.5249999999999773
20
15.975000000000001
0
LWPOLYLINE
5
137
100
AcDbEntity
8
0
100
AcDbPolyline
90
8
70
1
43
0.0
10
-40.625
20
3.0750000000000011
10
-40.625
20
15.975000000000001
42
0.41421356237308676
10
-41.174999999999997
20
16.524999999999999
10
-54.074999999999989
20
16.524999999999999
42
0.41421356237308676
10
-54.624999999999986
20
15.975000000000001
10
-54.624999999999986
20
3.0750000000000011
42
0.41421356237308643
10
-54.074999999999989
20
2.5250000000000039
10
-41.174999999999997
20
2.5250000000000039
42
0.41421356237308643
0
LWPOLYLINE
5
138
100
AcDbEntity
8
0
100
AcDbPolyline
90
8
70
1
43
0.0
10
-59.675000000000011
20
3.0750000000000011
42
-0.41421356237308643
10
-60.225000000000009
20
2.5250000000000039
10
-73.125
20
2.5250000000000021
42
-0.41421356237308643
10
-73.674999999999997
20
3.0750000000000011
10
-73.674999999999997
20
15.975000000000001
42
-0.41421356237308676
10
-73.125
20
16.524999999999999
10
-60.225000000000009
20
16.525000000000002
42
-0.41421356237308676
10
-59.675000000000011
20
15.975000000000001
0
LWPOLYLINE
5
139
100
AcDbEntity
8
0
100
AcDbPolyline
90
8
70
1
43
0.0
10
-21.574999999999989
20
3.0750000000000011
10
-21.574999999999989
20
15.975000000000001
42
0.4142135623730962
10
-22.124999999999986
20
16.524999999999999
10
-35.024999999999977
20
16.524999999999999
42
0.4142135623730962
10
-35.574999999999974
20
15.975000000000001
10
-35.574999999999974
20
3.0750000000000011
42
0.41421356237309537
10
-35.024999999999977
20
2.5250000000000039
10
-22.124999999999986
20
2.5250000000000039
42
0.41421356237309537
0
LWPOLYLINE
5
140
100
AcDbEntity
8
0
100
AcDbPolyline
90
8
70
1
43
0.0
10
-269.22500000000002
20
79.275000000000006
10
-269.22500000000002
20
92.174999999999997
42
0.41421356237309503
10
-269.77499999999998
20
92.724999999999994
10
-282.67499999999995
20
92.724999999999994
42
0.41421356237309503
10
-283.22499999999997
20
92.174999999999997
10
-283.22500000000002
20
79.275000000000006
42
0.41421356237309503
10
-282.67499999999995
20
78.725000000000009
10
-269.77499999999998
20
78.725000000000009
42
0.41421356237310453
0
LWPOLYLINE
5
141
100
AcDbEntity
8
0
100
AcDbPolyline
90
8
70
1
43
0.0
10
-216.83749999999998
20
79.275000000000006
42
-0.41421356237310453
10
-217.38749999999996
20
78.725000000000009
10
-232.66874999999999
20
78.724999999999994
42
-0.41421356237310453
10
-233.21875
20
79.275000000000006
10
-233.21875
20
92.174999999999997
42
-0.41421356237309503
10
-232.66874999999999
20
92.724999999999994
10
-217.38749999999996
20
92.724999999999937
42
-0.41421356237306667
10
-216.83750000000003
20
92.174999999999997
0
LWPOLYLINE
5
142
100
AcDbEntity
8
0
100
AcDbPolyline
90
8
70
1
43
0.0
10
-250.17500000000007
20
79.275000000000006
42
-0.41421356237310453
10
-250.72500000000005
20
78.725000000000009
10
-263.625
20
78.724999999999994
42
-0.41421356237310453
10
-264.17499999999995
20
79.275000000000006
10
-264.17499999999995
20
92.174999999999997
42
-0.41421356237304774
10
-263.62500000000006
20
92.724999999999994
10
-250.72500000000005
20
92.724999999999994
42
-0.41421356237309503
10
-250.17500000000007
20
92.174999999999997
0
LWPOLYLINE
5
143
100
AcDbEntity
8
0
100
AcDbPolyline
90
8
70
1
43
0.0
10
-288.27499999999992
20
79.275000000000006
42
-0.41421356237310453
10
-288.82499999999993
20
78.725000000000009
10
-301.72500000000002
20
78.724999999999937
42
-0.41421356237309503
10
-302.27500000000009
20
79.275000000000006
10
-302.27499999999998
20
92.174999999999997
42
-0.41421356237309503
10
-301.72500000000002
20
92.724999999999994
10
-288.82499999999993
20
92.724999999999937
42
-0.41421356237306667
10
-288.27499999999998
20
92.174999999999997
0
LWPOLYLINE
5
144
100
AcDbEntity
8
0
100
AcDbPolyline
90
8
70
1
43
0.0
10
-173.97500000000002
20
3.0750000000000011
42
-0.4142135623731264
10
-174.52500000000001
20
2.5250000000000039
10
-187.42500000000007
20
2.5250000000000874
42
-0.41421356237308854
10
-187.97499999999999
20
3.0750000000000011
10
-187.97500000000008
20
15.975000000000001
42
-0.41421356237312695
10
-187.42500000000007
20
16.524999999999999
10
-174.52500000000001
20
16.524999999999988
42
-0.41421356237312695
10
-173.97500000000002
20
15.975000000000001
0
LWPOLYLINE
5
145
100
AcDbEntity
8
0
100
AcDbPolyline
90
8
70
1
43
0.0
10
-154.92500000000001
20
3.0750000000000011
42
-0.4142135623730912
10
-155.47499999999999
20
2.5250000000000039
10
-168.37500000000006
20
2.5250000000000874
42
-0.41421356237308854
10
-168.92499999999998
20
3.0750000000000011
10
-168.92500000000007
20
15.975000000000001
42
-0.41421356237312695
10
-168.37500000000006
20
16.524999999999999
10
-155.47499999999999
20
16.524999999999991
42
-0.41421356237309154
10
-154.92500000000001
20
15.975000000000001
0
LWPOLYLINE
5
146
100
AcDbEntity
8
0
100
AcDbPolyline
90
8
70
1
43
0.0
10
-135.875
20
3.0750000000000011
42
-0.4142135623730912
10
-136.42499999999998
20
2.5250000000000039
10
-149.32499999999999
20
2.525000000000011
42
-0.4142135623730912
10
-149.87499999999997
20
3.0750000000000011
10
-149.87499999999997
20
15.975000000000001
42
-0.41421356237309154
10
-149.32499999999999
20
16.524999999999999
10
-136.42499999999998
20
16.524999999999991
42
-0.41421356237309154
10
-135.875
20
15.975000000000001
0
LWPOLYLINE
5
147
100
AcDbEntity
8
0
100
AcDbPolyline
90
8
70
1
43
0.0
10
-97.775000000000034
20
3.0750000000000011
42
-0.4142135623730912
10
-98.325000000000031
20
2.5250000000000039
10
-111.22500000000002
20
2.525000000000011
42
-0.4142135623730912
10
-111.77500000000002
20
3.0750000000000011
10
-111.77500000000002
20
15.975000000000001
42
-0.41421356237309154
10
-111.22500000000002
20
16.524999999999999
10
-98.325000000000031
20
16.524999999999991
42
-0.41421356237309154
10
-97.775000000000034
20
15.975000000000001
0
LWPOLYLINE
5
148
100
AcDbEntity
8
0
100
AcDbPolyline
90
8
70
1
43
0.0
10
-264.46249999999998
20
22.125000000000004
42
-0.41421356237312579
10
-265.01249999999999
20
21.575000000000006
10
-277.91250000000002
20
21.574999999999939
42
-0.4142135623730927
10
-278.46250000000009
20
22.125000000000004
10
-278.46250000000003
20
35.024999999999991
42
-0.41421356237312579
10
-277.91250000000002
20
35.574999999999989
10
-265.01249999999999
20
35.574999999999982
42
-0.41421356237312579
10
-264.46249999999998
20
35.024999999999991
0
LWPOLYLINE
5
149
100
AcDbEntity
8
0
100
AcDbPolyline
90
8
70
1
43
0.0
10
-116.82499999999997
20
3.0750000000000011
42
-0.4142135623730912
10
-117.37499999999997
20
2.5250000000000039
10
-130.27500000000003
20
2.525000000000011
42
-0.4142135623730912
10
-130.82500000000005
20
3.0750000000000011
10
-130.82500000000005
20
15.975000000000001
42
-0.41421356237313522
10
-130.27499999999998
20
16.524999999999999
10
-117.37499999999997
20
16.524999999999991
42
-0.41421356237309154
10
-116.82499999999997
20
15.975000000000001
0
CIRCLE
5
150
100
AcDbEntity
8
0
100
AcDbCircle
10
-287.2750579833982
20
98.254978659549863
30
0
40
1.7499999999997584
210
0
220
-0
230
1
0
CIRCLE
5
151
100
AcDbEntity
8
0
100
AcDbCircle
10
-197.35839131673089
20
-3.0049999781448378
30
0
40
1.7499999999995453
210
0
220
-0
230
1
0
CIRCLE
5
152
100
AcDbEntity
8
0
100
AcDbCircle
10
-17.524999999999693
20
-3.0049999781451224
30
0
40
1.7500000000000004
210
0
220
-0
230
1
0
CIRCLE
5
153
100
AcDbEntity
8
0
100
AcDbCircle
10
-107.44166666666672
20
-3.0049999781442698
30
0
40
1.7500000000000071
210
0
220
-0
230
1
0
CIRCLE
5
154
100
AcDbEntity
8
0
100
AcDbCircle
10
-287.27505798339763
20
-3.0049999781448378
30
0
40
1.7499999999997584
210
0
220
-0
230
1
0
CIRCLE
5
155
100
AcDbEntity
8
0
100
AcDbCircle
10
-197.35839131673146
20
98.254978659549863
30
0
40
1.7499999999995453
210
0
220
-0
230
1
0
LWPOLYLINE
5
156
100
AcDbEntity
8
0
100
AcDbPolyline
90
8
70
1
43
0.0
10
-24.887500000000031
20
22.125000000000004
42
-0.41421356237309503
10
-25.437500000000028
20
21.575000000000006
10
-26.337500000000063
20
21.575000000000006
42
-0.41421356237306195
10
-26.887499999999989
20
22.125000000000004
10
-26.887500000000006
20
35.024999999999991
42
-0.41421356237305251
10
-26.337500000000063
20
35.57500000000001
10
-25.437500000000028
20
35.574999999999989
42
-0.41421356237309503
10
-24.887500000000031
20
35.024999999999991
0
LWPOLYLINE
5
157
100
AcDbEntity
8
0
100
AcDbPolyline
90
8
70
1
43
0.0
10
-7.2874999999999792
20
22.125000000000004
42
-0.41421356237309559
10
-7.8374999999999773
20
21.575000000000006
10
-20.737499999999969
20
21.575000000000006
42
-0.41421356237309503
10
-21.287499999999966
20
22.125000000000004
10
-21.287499999999966
20
35.024999999999991
42
-0.41421356237309503
10
-20.737499999999969
20
35.574999999999989
10
-7.8374999999999773
20
35.574999999999989
42
-0.41421356237309559
10
-7.2874999999999801
20
35.024999999999991
0
LWPOLYLINE
5
158
100
AcDbEntity
8
0
100
AcDbPolyline
90
8
70
1
43
0.0
10
-50.150000000000006
20
22.125000000000004
10
-50.150000000000006
20
35.024999999999991
42
0.4142135623730856
10
-50.700000000000003
20
35.574999999999989
10
-63.599999999999994
20
35.574999999999989
42
0.4142135623730856
10
-64.149999999999991
20
35.024999999999991
10
-64.149999999999991
20
22.125000000000004
42
0.4142135623730856
10
-63.599999999999994
20
21.575000000000006
10
-50.700000000000003
20
21.575000000000006
42
0.4142135623730856
0
LWPOLYLINE
5
159
100
AcDbEntity
8
0
100
AcDbPolyline
90
8
70
1
43
0.0
10
-231.12500000000006
20
3.0750000000000011
42
-0.4142135623731264
10
-231.67500000000004
20
2.5250000000000039
10
-244.57499999999996
20
2.5250000000000163
42
-0.4142135623731264
10
-245.12499999999994
20
3.0750000000000011
10
-245.12499999999994
20
15.975000000000001
42
-0.41421356237312695
10
-244.57499999999996
20
16.524999999999999
10
-231.67500000000004
20
16.524999999999988
42
-0.41421356237312695
10
-231.12500000000006
20
15.975000000000001
0
LWPOLYLINE
5
160
100
AcDbEntity
8
0
100
AcDbPolyline
90
8
70
1
43
0.0
10
-258.86250000000007
20
22.125000000000004
42
-0.41421356237312579
10
-259.41250000000002
20
21.575000000000006
10
-260.3125
20
21.574999999999939
42
-0.4142135623730927
10
-260.86250000000007
20
22.125000000000004
10
-260.86250000000001
20
35.024999999999991
42
-0.41421356237310453
10
-260.3125
20
35.57500000000001
10
-259.41250000000002
20
35.574999999999982
42
-0.41421356237312579
10
-258.86250000000007
20
35.024999999999991
0
LWPOLYLINE
5
161
100
AcDbEntity
8
0
100
AcDbPolyline
90
8
70
1
43
0.0
10
-164.44999999999999
20
22.125000000000004
42
-0.41421356237312579
10
-165
20
21.575000000000006
10
-177.90000000000006
20
21.575000000000021
42
-0.41421356237312579
10
-178.45000000000005
20
22.125000000000004
10
-178.45000000000005
20
35.024999999999991
42
-0.41421356237312579
10
-177.90000000000006
20
35.574999999999989
10
-165
20
35.574999999999982
42
-0.41421356237312579
10
-164.44999999999999
20
35.024999999999991
0
LWPOLYLINE
5
162
100
AcDbEntity
8
0
100
AcDbPolyline
90
8
70
1
43
0.0
10
-145.39999999999998
20
22.125000000000004
10
-145.39999999999998
20
35.024999999999991
42
0.41421356237309037
10
-145.94999999999999
20
35.574999999999989
10
-158.84999999999997
20
35.57500000000001
42
0.41421356237309975
10
-159.39999999999998
20
35.024999999999991
10
-159.39999999999998
20
22.125000000000004
42
0.41421356237309037
10
-158.84999999999997
20
21.575000000000006
10
-145.94999999999999
20
21.575000000000006
42
0.41421356237309037
0
LWPOLYLINE
5
163
100
AcDbEntity
8
0
100
AcDbPolyline
90
8
70
1
43
0.0
10
-1.6875000000000282
20
22.125000000000004
42
-0.4142135623730952
10
-2.2375000000000256
20
21.575000000000006
10
-3.1375000000000597
20
21.575000000000006
42
-0.41421356237305634
10
-3.6874999999999858
20
22.125000000000004
10
-3.6874999999999862
20
35.024999999999991
42
-0.41421356237309537
10
-3.1374999999999886
20
35.574999999999989
10
-2.2375000000000256
20
35.574999999999989
42
-0.4142135623730952
10
-1.6875000000000284
20
35.024999999999991
0
LWPOLYLINE
5
164
100
AcDbEntity
8
0
100
AcDbPolyline
90
8
70
1
43
0.0
10
-69.200000000000017
20
22.125000000000004
42
-0.4142135623730856
10
-69.750000000000014
20
21.575000000000006
10
-82.650000000000006
20
21.575000000000017
42
-0.41421356237309037
10
-83.200000000000003
20
22.125000000000004
10
-83.200000000000003
20
35.024999999999991
42
-0.41421356237309975
10
-82.650000000000006
20
35.57500000000001
10
-69.750000000000014
20
35.574999999999989
42
-0.4142135623730856
10
-69.200000000000017
20
35.024999999999991
0
LWPOLYLINE
5
165
100
AcDbEntity
8
0
100
AcDbPolyline
90
8
70
1
43
0.0
10
-31.099999999999994
20
22.125000000000004
42
-0.41421356237309503
10
-31.649999999999991
20
21.575000000000006
10
-44.549999999999983
20
21.575000000000006
42
-0.4142135623730856
10
-45.09999999999998
20
22.125000000000004
10
-45.09999999999998
20
35.024999999999991
42
-0.4142135623730856
10
-44.549999999999983
20
35.574999999999989
10
-31.649999999999991
20
35.574999999999989
42
-0.41421356237309503
10
-31.099999999999994
20
35.024999999999991
0
LWPOLYLINE
5
166
100
AcDbEntity
8
0
100
AcDbPolyline
90
8
70
1
43
0.0
10
-126.34999999999998
20
22.125000000000004
42
-0.41421356237309037
10
-126.89999999999998
20
21.575000000000006
10
-139.79999999999995
20
21.575000000000077
42
-0.41421356237313289
10
-140.34999999999997
20
22.125000000000004
10
-140.35000000000002
20
35.024999999999991
42
-0.41421356237309037
10
-139.80000000000004
20
35.574999999999989
10
-126.89999999999998
20
35.574999999999982
42
-0.41421356237309037
10
-126.34999999999998
20
35.024999999999991
0
LWPOLYLINE
5
167
100
AcDbEntity
8
0
100
AcDbPolyline
90
8
70
1
43
0.0
10
-107.29999999999997
20
22.125000000000004
42
-0.41421356237309037
10
-107.84999999999997
20
21.575000000000006
10
-120.75000000000003
20
21.575000000000017
42
-0.41421356237309037
10
-121.30000000000003
20
22.125000000000004
10
-121.30000000000004
20
35.024999999999991
42
-0.41421356237314949
10
-120.74999999999996
20
35.57500000000001
10
-107.84999999999997
20
35.574999999999982
42
-0.41421356237309037
10
-107.29999999999997
20
35.024999999999991
0
LWPOLYLINE
5
168
100
AcDbEntity
8
0
100
AcDbPolyline
90
8
70
1
43
0.0
10
-88.250000000000028
20
22.125000000000004
42
-0.41421356237309037
10
-88.800000000000026
20
21.575000000000006
10
-101.70000000000002
20
21.575000000000017
42
-0.41421356237309037
10
-102.25000000000001
20
22.125000000000004
10
-102.25000000000001
20
35.024999999999991
42
-0.41421356237309037
10
-101.70000000000002
20
35.574999999999989
10
-88.800000000000026
20
35.574999999999982
42
-0.41421356237309037
10
-88.250000000000028
20
35.024999999999991
0
CIRCLE
5
169
100
AcDbEntity
8
0
100
AcDbCircle
10
-17.525000000000265
20
98.254978659549579
30
0
40
1.749999999999774
210
0
220
-0
230
1
0
LWPOLYLINE
5
170
100
AcDbEntity
8
0
100
AcDbPolyline
90
8
70
1
43
0.0
10
-240.65000000000003
20
22.125000000000004
42
-0.41421356237312579
10
-241.20000000000005
20
21.575000000000006
10
-254.10000000000002
20
21.574999999999989
42
-0.41421356237302881
10
-254.64999999999998
20
22.125000000000004
10
-254.64999999999998
20
35.024999999999991
42
-0.41421356237312579
10
-254.09999999999997
20
35.574999999999989
10
-241.20000000000005
20
35.574999999999982
42
-0.41421356237312579
10
-240.65000000000003
20
35.024999999999991
0
LWPOLYLINE
5
171
100
AcDbEntity
8
0
100
AcDbPolyline
90
8
70
1
43
0.0
10
-282.06250000000006
20
22.125000000000004
42
-0.41421356237312579
10
-282.61250000000007
20
21.575000000000006
10
-283.51249999999993
20
21.574999999999939
42
-0.4142135623730927
10
-284.0625
20
22.125000000000004
10
-284.06249999999994
20
35.024999999999991
42
-0.41421356237312579
10
-283.51249999999993
20
35.574999999999989
10
-282.61250000000007
20
35.57500000000006
42
-0.4142135623730927
10
-282.0625
20
35.024999999999991
0
LWPOLYLINE
5
172
100
AcDbEntity
8
0
100
AcDbPolyline
90
8
70
1
43
0.0
10
-202.55000000000001
20
22.125000000000004
10
-202.55000000000001
20
35.024999999999991
42
0.41421356237312579
10
-203.10000000000002
20
35.574999999999989
10
-216
20
35.57500000000001
42
0.41421356237310453
10
-216.55000000000001
20
35.024999999999991
10
-216.55000000000001
20
22.125000000000004
42
0.41421356237312579
10
-216
20
21.575000000000006
10
-203.10000000000002
20
21.575000000000006
42
0.41421356237312579
0
LWPOLYLINE
5
173
100
AcDbEntity
8
0
100
AcDbPolyline
90
8
70
1
43
0.0
10
-235.05000000000001
20
21.575000000000021
42
-0.41421356237312579
10
-235.60000000000002
20
22.125000000000004
10
-235.60000000000002
20
35.024999999999991
42
-0.41421356237310453
10
-235.05000000000001
20
35.57500000000001
10
-222.15000000000003
20
35.574999999999982
42
-0.41421356237312579
10
-221.60000000000002
20
35.024999999999991
10
-221.60000000000002
20
22.125000000000004
42
-0.41421356237312579
10
-222.15000000000003
20
21.575000000000006
0
LWPOLYLINE
5
174
100
AcDbEntity
8
0
100
AcDbPolyline
90
8
70
1
43
0.0
10
-183.5
20
22.125000000000004
42
-0.41421356237312579
10
-184.05000000000001
20
21.575000000000006
10
-196.94999999999999
20
21.575000000000021
42
-0.41421356237312579
10
-197.5
20
22.125000000000004
10
-197.5
20
35.024999999999991
42
-0.41421356237310453
10
-196.94999999999999
20
35.57500000000001
10
-184.05000000000001
20
35.574999999999982
42
-0.41421356237312579
10
-183.5
20
35.024999999999991
0
LWPOLYLINE
5
175
100
AcDbEntity
8
0
100
AcDbPolyline
90
8
70
1
43
0.0
10
-288.27499999999992
20
3.0750000000000099
10
-288.27499999999998
20
15.974999999999984
42
0.41421356237308909
10
-288.82499999999993
20
16.52499999999991
10
-301.72500000000002
20
16.524999999999984
42
0.41421356237312812
10
-302.27499999999998
20
15.974999999999984
10
-302.27499999999992
20
3.0750000000000122
42
0.41421356237308854
10
-301.72500000000002
20
2.5250000000000128
10
-288.82499999999993
20
2.525000000000015
42
0.41421356237312523
0
LWPOLYLINE
5
176
100
AcDbEntity
8
0
100
AcDbPolyline
90
8
70
1
43
0.0
10
-169.21250000000001
20
41.174999999999997
10
-169.21250000000001
20
54.075000000000003
42
0.41421356237310453
10
-169.76249999999999
20
54.625
10
-182.66249999999999
20
54.625
42
0.41421356237310453
10
-183.21249999999998
20
54.075000000000003
10
-183.21250000000006
20
41.174999999999997
42
0.41421356237309503
10
-182.66249999999999
20
40.625
10
-169.76249999999999
20
40.625
42
0.41421356237310453
0
LWPOLYLINE
5
177
100
AcDbEntity
8
0
100
AcDbPolyline
90
8
70
1
43
0.0
10
-54.912500000000009
20
41.174999999999997
42
-0.41421356237307611
10
-55.462500000000006
20
40.625
10
-68.362499999999997
20
40.625
42
-0.41421356237307611
10
-68.912499999999994
20
41.174999999999997
10
-68.912499999999994
20
54.075000000000003
42
-0.41421356237307611
10
-68.362499999999997
20
54.625
10
-55.462500000000006
20
54.625
42
-0.41421356237307611
10
-54.912500000000009
20
54.075000000000003
0
LWPOLYLINE
5
178
100
AcDbEntity
8
0
100
AcDbPolyline
90
8
70
1
43
0.0
10
-207.31250000000003
20
41.174999999999997
42
-0.41421356237310453
10
-207.86250000000001
20
40.625
10
-220.76250000000002
20
40.624999999999986
42
-0.41421356237310453
10
-221.3125
20
41.174999999999997
10
-221.3125
20
54.075000000000003
42
-0.41421356237310453
10
-220.76250000000002
20
54.625
10
-207.86250000000001
20
54.625000000000021
42
-0.41421356237310453
10
-207.31250000000003
20
54.075000000000003
0
LWPOLYLINE
5
179
100
AcDbEntity
8
0
100
AcDbPolyline
90
8
70
1
43
0.0
10
-73.96250000000002
20
41.174999999999997
42
-0.41421356237307611
10
-74.512500000000017
20
40.625
10
-87.412500000000009
20
40.625000000000014
42
-0.4142135623730856
10
-87.962500000000006
20
41.174999999999997
10
-87.96250000000002
20
54.075000000000003
42
-0.4142135623730856
10
-87.412500000000009
20
54.625
10
-74.512500000000017
20
54.625
42
-0.41421356237307611
10
-73.96250000000002
20
54.075000000000003
0
LWPOLYLINE
5
180
100
AcDbEntity
8
0
100
AcDbPolyline
90
8
70
1
43
0.0
10
-27.268749999999997
20
41.174999999999997
42
-0.4142135623730856
10
-27.818749999999994
20
40.625
10
-28.718750000000028
20
40.625
42
-0.4142135623730856
10
-29.268750000000026
20
41.174999999999997
10
-29.268750000000026
20
54.075000000000003
42
-0.4142135623730856
10
-28.718750000000028
20
54.625
10
-27.818749999999994
20
54.625
42
-0.4142135623730856
10
-27.268749999999997
20
54.075000000000003
0
LWPOLYLINE
5
181
100
AcDbEntity
8
0
100
AcDbPolyline
90
8
70
1
43
0.0
10
-288.27499999999992
20
22.125000000000004
42
-0.41421356237312579
10
-288.82499999999993
20
21.575000000000006
10
-301.72500000000002
20
21.575000000000088
42
-0.41421356237309037
10
-302.27499999999992
20
22.125000000000004
10
-302.27499999999998
20
35.024999999999991
42
-0.41421356237312579
10
-301.72500000000002
20
35.574999999999989
10
-288.82499999999993
20
35.57499999999991
42
-0.41421356237309037
10
-288.27499999999998
20
35.024999999999991
0
LWPOLYLINE
5
182
100
AcDbEntity
8
0
100
AcDbPolyline
90
8
70
1
43
0.0
10
-35.862499999999997
20
41.174999999999997
42
-0.4142135623730856
10
-36.412499999999994
20
40.625
10
-49.312499999999986
20
40.625
42
-0.41421356237307611
10
-49.862499999999983
20
41.174999999999997
10
-49.862499999999983
20
54.075000000000003
42
-0.41421356237307611
10
-49.312499999999986
20
54.625
10
-36.412499999999994
20
54.625
42
-0.4142135623730856
10
-35.862499999999997
20
54.075000000000003
0
LWPOLYLINE
5
183
100
AcDbEntity
8
0
100
AcDbPolyline
90
8
70
1
43
0.0
10
-188.26250000000002
20
41.174999999999997
42
-0.41421356237310453
10
-188.8125
20
40.625
10
-201.71250000000001
20
40.624999999999986
42
-0.41421356237310453
10
-202.26249999999999
20
41.174999999999997
10
-202.26249999999999
20
54.075000000000003
42
-0.41421356237310453
10
-201.71250000000001
20
54.625
10
-188.8125
20
54.625000000000021
42
-0.41421356237310453
10
-188.26250000000002
20
54.075000000000003
0
LWPOLYLINE
5
184
100
AcDbEntity
8
0
100
AcDbPolyline
90
8
70
1
43
0.0
10
-226.36249999999995
20
41.174999999999997
42
-0.41421356237310453
10
-226.91249999999997
20
40.625
10
-239.81250000000003
20
40.624999999999986
42
-0.41421356237310453
10
-240.36250000000001
20
41.174999999999997
10
-240.36250000000001
20
54.075000000000003
42
-0.41421356237310453
10
-239.81250000000003
20
54.625
10
-226.91249999999997
20
54.624999999999915
42
-0.4142135623730856
10
-226.36250000000004
20
54.075000000000003
0
LWPOLYLINE
5
185
100
AcDbEntity
8
0
100
AcDbPolyline
90
8
70
1
43
0.0
10
-4.0687499999999925
20
41.174999999999997
42
-0.41421356237308643
10
-4.6187499999999915
20
40.625
10
-23.118750000000006
20
40.625
42
-0.4142135623730856
10
-23.668750000000003
20
41.174999999999997
10
-23.668750000000003
20
54.075000000000003
42
-0.4142135623730856
10
-23.118750000000006
20
54.625
10
-4.6187499999999915
20
54.625
42
-0.41421356237308643
10
-4.0687499999999943
20
54.075000000000003
0
LWPOLYLINE
5
186
100
AcDbEntity
8
0
100
AcDbPolyline
90
8
70
1
43
0.0
10
-121.58750000000003
20
60.225000000000009
10
-121.58749999999998
20
73.125
42
0.41421356237309503
10
-122.13750000000005
20
73.675000000000068
10
-135.03750000000002
20
73.674999999999997
42
0.41421356237306667
10
-135.58749999999998
20
73.125
10
-135.58749999999998
20
60.225000000000009
42
0.4142135623730856
10
-135.03749999999997
20
59.675000000000011
10
-122.13750000000005
20
59.674999999999997
42
0.41421356237309975
0
LWPOLYLINE
5
187
100
AcDbEntity
8
0
100
AcDbPolyline
90
8
70
1
43
0.0
10
-6.3932500000000037
20
75.825000000000003
10
-12.593250000000031
20
75.825000000000003
42
0.4142135623730962
10
-13.143250000000029
20
75.27500000000002
10
-13.14325000000003
20
61.075000000000003
42
0.4142135623730962
10
-12.593250000000031
20
60.525000000000013
10
-6.3932500000000037
20
60.525000000000013
42
0.41421356237309742
10
-5.8432499999999976
20
61.07500000000001
10
-5.8432500000000029
20
75.27500000000002
42
0.41421356237309687
0
LWPOLYLINE
5
188
100
AcDbEntity
8
0
100
AcDbPolyline
90
8
70
1
43
0.0
10
-257.31874999999997
20
41.174999999999997
10
-257.31874999999997
20
54.075000000000003
42
0.41421356237310453
10
-257.86874999999998
20
54.625
10
-270.76875000000001
20
54.625
42
0.41421356237310453
10
-271.31875000000002
20
54.075000000000003
10
-271.31875000000008
20
41.174999999999997
42
0.41421356237309503
10
-270.76875000000001
20
40.624999999999929
10
-257.86874999999998
20
40.625
42
0.41421356237310453
0
ENDSEC
0
SECTION
2
OBJECTS
0
DICTIONARY
5
C
100
AcDbDictionary
3
ACAD_GROUP
350
D
3
ACAD_MLINESTYLE
350
17
0
DICTIONARY
5
D
100
AcDbDictionary
0
DICTIONARY
5
1A
330
C
100
AcDbDictionary
0
DICTIONARY
5
17
100
AcDbDictionary
0
ENDSEC
0
EOF
