0
SECTION
2
HEADER
9
$INSUNITS
70
4
9
$ACADVER
1
AC1014
9
$HANDSEED
5
FFFF
0
ENDSEC
0
SECTION
2
TABLES
0
TABLE
2
VPORT
5
8
100
AcDbSymbolTable
0
ENDTAB
0
TABLE
2
LTYPE
5
5
100
AcDbSymbolTable
0
LTYPE
5
14
100
AcDbSymbolTableRecord
100
AcDbLinetypeTableRecord
2
BYBLOCK
70
0
0
LTYPE
5
15
100
AcDbSymbolTableRecord
100
AcDbLinetypeTableRecord
2
BYLAYER
70
0
0
ENDTAB
0
TABLE
2
LAYER
5
2
100
AcDbSymbolTable
70
2
0
LAYER
5
50
100
AcDbSymbolTableRecord
100
AcDbLayerTableRecord
2
0
70
0
6
CONTINUOUS
0
ENDTAB
0
TABLE
2
STYLE
5
3
100
AcDbSymbolTable
70
1
0
STYLE
5
11
100
AcDbSymbolTableRecord
100
AcDbTextStyleTableRecord
2
STANDARD
70
0
0
ENDTAB
0
TABLE
2
VIEW
5
6
100
AcDbSymbolTable
70
0
0
ENDTAB
0
TABLE
2
UCS
5
7
100
AcDbSymbolTable
70
0
0
ENDTAB
0
TABLE
2
APPID
5
9
100
AcDbSymbolTable
70
2
0
APPID
5
12
100
AcDbSymbolTableRecord
100
AcDbRegAppTableRecord
2
ACAD
70
0
0
ENDTAB
0
TABLE
2
DIMSTYLE
5
A
100
AcDbSymbolTable
70
1
0
ENDTAB
0
TABLE
2
BLOCK_RECORD
5
1
100
AcDbSymbolTable
70
1
0
BLOCK_RECORD
5
1F
100
AcDbSymbolTableRecord
100
AcDbBlockTableRecord
2
*MODEL_SPACE
0
BLOCK_RECORD
5
1B
100
AcDbSymbolTableRecord
100
AcDbBlockTableRecord
2
*PAPER_SPACE
0
ENDTAB
0
ENDSEC
0
SECTION
2
BLOCKS
0
BLOCK
5
20
100
AcDbEntity
100
AcDbBlockBegin
2
*MODEL_SPACE
0
ENDBLK
5
21
100
AcDbEntity
100
AcDbBlockEnd
0
BLOCK
5
1C
100
AcDbEntity
100
AcDbBlockBegin
2
*PAPER_SPACE
0
ENDBLK
5
1D
100
AcDbEntity
100
AcDbBlockEnd
0
ENDSEC
0
SECTION
2
ENTITIES
0
LWPOLYLINE
5
100
100
AcDbEntity
8
0
100
AcDbPolyline
90
106
70
1
43
0.0
10
-33.900609665439525
20
100.42499999999984
42
-0.19891236737968684
10
-32.875304832719017
20
100.0003048327202
10
-28.578984489160902
20
95.703984489160945
42
0.19891236737971063
10
-27.482968978321693
20
95.249999999999943
10
-1.0749999999999549
20
95.249999999998778
42
-0.41421356237309742
10
0
20
94.174999999998761
10
0
20
1.0750000000012074
42
-0.41421356237308293
10
-1.0749999999999549
20
1.2079226507921703e-12
10
-27.482968978321679
20
-5.2735593669694936e-15
42
0.19891236737965626
10
-28.578984489160781
20
-0.45398448916088796
10
-32.875304832719905
20
-4.7503048327202917
42
-0.19891236737964554
10
-33.900609665440328
20
-5.1749999999998311
10
-36.000000000000021
20
-5.1749999999999829
42
-0.41421356237309503
10
-36.500000000000014
20
-4.6750000000000291
10
-36.499999999999993
20
-0.37499999999999639
42
0.99999999999999989
10
-39.700000000000067
20
-0.37499999999999645
10
-39.699999999999996
20
-4.6749999999999758
42
-0.41421356237307422
10
-40.200000000000003
20
-5.1749999999999829
10
-42.299390334558879
20
-5.1750000000000673
42
-0.19891236737966422
10
-43.324695167279415
20
-4.7503048327205715
10
-47.621015510839193
20
-0.45398448916087353
42
0.19891236737967766
10
-48.717031021678316
20
-7.1054273576010019e-14
10
-132.25796897832203
20
-4.829470157119431e-14
42
0.19891236737966661
10
-133.35398448916109
20
-0.4539844891608702
10
-137.65030483272076
20
-4.7503048327204764
42
-0.19891236737965914
10
-138.67560966544124
20
-5.1749999999999652
10
-140.77500000000009
20
-5.1749999999999474
42
-0.41421356237313667
10
-141.27500000000003
20
-4.6749999999999758
10
-141.27500000000009
20
-0.37500000000003192
42
0.99999999999999989
10
-144.47500000000008
20
-0.37499999999999645
10
-144.47500000000008
20
-4.6749999999999758
42
-0.41421356237309503
10
-144.97500000000005
20
-5.1749999999999474
10
-147.07439033455853
20
-5.1749999999999741
42
-0.1989123673796617
10
-148.09969516727901
20
-4.7503048327204942
10
-152.39601551083899
20
-0.45398448916078638
42
0.19891236737968016
10
-153.49203102167809
20
-1.7763568394002505e-14
10
-237.03296897832203
20
-9.1593399531575415e-15
42
0.19891236737964188
10
-238.12898448916093
20
-0.45398448916081691
10
-242.42530483272071
20
-4.7503048327207233
42
-0.19891236737970383
10
-243.45060966544142
20
-5.1750000000002547
10
-245.55000000000007
20
-5.1750000000000007
42
-0.4142135623730222
10
-246.05000000000004
20
-4.6749999999999758
10
-246.05000000000001
20
-0.37499999999990757
42
0.99999999999999989
10
-249.25
20
-0.37499999999997868
10
-249.25000000000011
20
-4.6749999999999758
42
-0.41421356237313667
10
-249.75
20
-5.1749999999998764
10
-251.84939033455819
20
-5.1749999999999474
42
-0.19891236737965765
10
-252.8746951672787
20
-4.7503048327205217
10
-257.17101551083897
20
-0.45398448916077083
42
0.19891236737962234
10
-258.26703102167806
20
0
10
-313.23296897832211
20
2.4702462297909733e-14
42
0.19891236737965268
10
-314.32898448916103
20
-0.45398448916078138
10
-318.62530483272025
20
-4.7503048327201629
42
-0.19891236737963203
10
-319.65060966544058
20
-5.1749999999996792
10
-321.75000000000011
20
-5.1749999999999474
42
-0.41421356237326151
10
-322.25
20
-4.6749999999999048
10
-322.25000000000017
20
-0.37499999999987205
42
0.99999999999999989
10
-325.44999999999982
20
-0.37500000000001421
10
-325.4500000000001
20
-4.6750000000000647
42
-0.41421356237313667
10
-325.94999999999993
20
-5.1749999999999829
10
-328.04939033455702
20
-5.1749999999996152
42
-0.19891236737958737
10
-329.0746951672773
20
-4.7503048327203672
10
-333.37101551083884
20
-0.45398448916072809
42
0.19891236737968307
10
-334.46703102167805
20
1.7763568394002508e-14
10
-351.35000000000014
20
-1.7763568394002505e-14
42
-0.41421356237309992
10
-352.42500000000013
20
1.0750000000000171
10
-352.42499999999995
20
94.174999999998448
42
-0.41421356237299828
10
-351.34999999999997
20
95.249999999998423
10
-334.46703102167805
20
95.25
42
0.19891236737956336
10
-333.37101551083913
20
95.703984489160874
10
-329.07469516728008
20
100.00030483272069
42
-0.19891236737972171
10
-328.04939033455923
20
100.42500000000034
10
-325.94999999999982
20
100.42500000000001
42
-0.41421356237307422
10
-325.45000000000022
20
99.924999999999997
10
-325.45000000000022
20
95.625000000000028
42
0.99999999999999989
10
-322.25
20
95.624999999999972
10
-322.25000000000011
20
99.92500000000004
42
-0.41421356237311585
10
-321.75000000000006
20
100.42499999999997
10
-319.65060966544121
20
100.42499999999964
42
-0.19891236737959914
10
-318.62530483272099
20
100.00030483272022
10
-314.3289844891612
20
95.703984489160774
42
0.19891236737965726
10
-313.23296897832199
20
95.249999999999943
10
-258.26703102167806
20
95.249999999999986
42
0.19891236737962256
10
-257.17101551083908
20
95.703984489160732
10
-252.87469516727776
20
100.00030483272127
42
-0.19891236737970971
10
-251.84939033455692
20
100.42500000000068
10
-249.75
20
100.42500000000004
42
-0.41421356237294937
10
-249.25
20
99.924999999999997
10
-249.24999999999997
20
95.625000000000028
42
0.99999999999999989
10
-246.05000000000004
20
95.624999999999972
10
-246.05000000000004
20
99.924999999999997
42
-0.41421356237313667
10
-245.55000000000004
20
100.42500000000001
10
-243.45060966544193
20
100.42500000000003
42
-0.1989123673796355
10
-242.42530483272148
20
100.00030483272057
10
-238.12898448916116
20
95.703984489160774
42
0.19891236737964041
10
-237.03296897832203
20
95.250000000000028
10
-48.717031021678274
20
95.249999999999986
42
0.19891236737967233
10
-47.621015510839058
20
95.703984489160916
10
-43.324695167279941
20
100.00030483272042
42
-0.19891236737968893
10
-42.299390334559405
20
100.42499999999997
10
-40.199999999999989
20
100.42499999999997
42
-0.41421356237309503
10
-39.700000000000017
20
99.924999999999997
10
-39.699999999999996
20
95.624999999999972
42
0.99999999999999989
10
-36.500000000000064
20
95.624999999999972
10
-36.500000000000014
20
99.92500000000004
42
-0.41421356237312623
10
-35.999999999999986
20
100.42500000000001
0
LWPOLYLINE
5
101
100
AcDbEntity
8
0
100
AcDbPolyline
90
8
70
1
43
0.0
10
-58.88750000000001
20
59.675000000000047
10
-45.887499999999982
20
59.675000000000047
42
0.41421356237303258
10
-45.38750000000001
20
60.175000000000054
10
-45.38750000000001
20
73.174999999999926
42
0.41421356237308982
10
-45.887499999999967
20
73.674999999999898
10
-58.88750000000001
20
73.674999999999997
42
0.41421356237313145
10
-59.387499999999996
20
73.174999999999983
10
-59.387499999999982
20
60.175000000000018
42
0.41421356237310542
0
LWPOLYLINE
5
102
100
AcDbEntity
8
0
100
AcDbPolyline
90
8
70
1
43
0.0
10
-125.56249999999999
20
40.625000000000036
10
-112.56250000000001
20
40.625000000000071
42
0.414213562373069
10
-112.06250000000009
20
41.125000000000078
10
-112.0625
20
54.125000000000014
42
0.41421356237312101
10
-112.56250000000006
20
54.625000000000021
10
-125.56250000000009
20
54.624999999999986
42
0.4142135623730378
10
-126.06249999999996
20
54.125000000000014
10
-126.06249999999996
20
41.125000000000078
42
0.41421356237305862
0
LWPOLYLINE
5
103
100
AcDbEntity
8
0
100
AcDbPolyline
90
8
70
1
43
0.0
10
-174.47500000000005
20
16.524999999999981
10
-187.47500000000008
20
16.525000000000016
42
0.41421356237309243
10
-187.97499999999999
20
16.025000000000063
10
-187.97499999999999
20
3.0249999999999844
42
0.41421356237314022
10
-187.47500000000005
20
2.5250000000000128
10
-174.47500000000005
20
2.5250000000000128
42
0.41421356237302709
10
-173.97500000000011
20
3.0249999999999844
10
-173.97500000000014
20
16.025000000000009
42
0.41421356237314838
0
LWPOLYLINE
5
104
100
AcDbEntity
8
0
100
AcDbPolyline
90
8
70
1
43
0.0
10
-163.66250000000008
20
40.624999999999964
10
-150.66250000000008
20
40.624999999999964
42
0.41421356237297013
10
-150.16250000000008
20
41.124999999999936
10
-150.16249999999997
20
54.125000000000014
42
0.4142135623730534
10
-150.66250000000002
20
54.625000000000057
10
-163.66250000000005
20
54.624999999999915
42
0.41421356237300661
10
-164.16249999999991
20
54.125000000000085
10
-164.16250000000008
20
41.125000000000007
42
0.4142135623730378
0
LWPOLYLINE
5
105
100
AcDbEntity
8
0
100
AcDbPolyline
90
8
70
1
43
0.0
10
-349.40000000000003
20
2.5249999999999773
10
-336.39999999999998
20
2.5250000000000128
42
0.41421356237300005
10
-335.90000000000009
20
3.0250000000000377
10
-335.90000000000003
20
16.025000000000027
42
0.4142135623730781
10
-336.39999999999998
20
16.525000000000123
10
-349.40000000000003
20
16.525000000000087
42
0.41421356237322121
10
-349.90000000000009
20
16.024999999999974
10
-349.90000000000032
20
3.0250000000000377
42
0.41421356237306933
0
LWPOLYLINE
5
106
100
AcDbEntity
8
0
100
AcDbPolyline
90
8
70
1
43
0.0
10
-111.77499999999998
20
16.02499999999992
10
-111.77500000000006
20
3.0249999999999844
42
0.41421356237311779
10
-111.27500000000005
20
2.5249999999999773
10
-98.275000000000034
20
2.5249999999999417
42
0.41421356237309992
10
-97.775000000000006
20
3.0249999999999844
10
-97.775000000000034
20
16.024999999999974
42
0.41421356237314316
10
-98.274999999999977
20
16.524999999999981
10
-111.27500000000001
20
16.524999999999981
42
0.41421356237318219
0
LWPOLYLINE
5
107
100
AcDbEntity
8
0
100
AcDbPolyline
90
8
70
1
43
0.0
10
-230.33749999999992
20
78.725000000000108
42
-0.41421356237321472
10
-230.83749999999998
20
79.225000000000023
10
-230.83749999999995
20
92.224999999999852
42
-0.4142135623732095
10
-230.33750000000001
20
92.724999999999866
10
-217.33750000000001
20
92.725000000000023
42
-0.4142135623730846
10
-216.83750000000003
20
92.224999999999994
10
-216.83750000000003
20
79.225000000000023
42
-0.41421356237310025
10
-217.33750000000001
20
78.725000000000051
0
LWPOLYLINE
5
108
100
AcDbEntity
8
0
100
AcDbPolyline
90
8
70
1
43
0.0
10
-136.37499999999994
20
92.724999999999866
42
-0.41421356237311585
10
-135.87500000000006
20
92.224999999999852
10
-135.87499999999991
20
79.224999999999923
42
-0.41421356237307944
10
-136.37499999999994
20
78.724999999999909
10
-149.37500000000006
20
78.725000000000009
42
-0.41421356237310025
10
-149.87500000000006
20
79.224999999999881
10
-149.87500000000006
20
92.224999999999852
42
-0.41421356237312623
10
-149.37499999999994
20
92.724999999999909
0
LWPOLYLINE
5
109
100
AcDbEntity
8
0
100
AcDbPolyline
90
8
70
1
43
0.0
10
-183.21250000000003
20
54.125000000000014
42
-0.4142135623730534
10
-182.71250000000009
20
54.62499999999995
10
-169.71249999999998
20
54.624999999999993
42
-0.4142135623730378
10
-169.21249999999998
20
54.125000000000014
10
-169.21250000000001
20
41.124999999999936
42
-0.41421356237300139
10
-169.71249999999998
20
40.625
10
-182.71250000000009
20
40.625000000000085
42
-0.41421356237304302
10
-183.21250000000003
20
41.125000000000007
0
LWPOLYLINE
5
110
100
AcDbEntity
8
0
100
AcDbPolyline
90
8
70
1
43
0.0
10
-54.125000000000007
20
2.5250000000000106
42
-0.41421356237310675
10
-54.624999999999993
20
3.0249999999999844
10
-54.625000000000014
20
16.025000000000009
42
-0.41421356237310675
10
-54.125000000000007
20
16.524999999999981
10
-41.124999999999979
20
16.524999999999977
42
-0.4142135623730625
10
-40.625000000000028
20
16.024999999999974
10
-40.625000000000007
20
3.0249999999999844
42
-0.41421356237309631
10
-41.124999999999979
20
2.5250000000000128
0
LWPOLYLINE
5
111
100
AcDbEntity
8
0
100
AcDbPolyline
90
8
70
1
43
0.0
10
-6.4932499999999838
20
75.674999999999898
42
-0.41421356237306839
10
-5.9932499999999944
20
75.175000000000054
10
-5.9932499999999962
20
61.175000000000033
42
-0.41421356237302087
10
-6.4932499999999838
20
60.674999999999919
10
-12.493249999999998
20
60.674999999999891
42
-0.41421356237308854
10
-12.993250000000041
20
61.175000000000033
10
-12.993250000000016
20
75.175000000000054
42
-0.4142135623730599
10
-12.493249999999998
20
75.674999999999926
0
LWPOLYLINE
5
112
100
AcDbEntity
8
0
100
AcDbPolyline
90
8
70
1
43
0.0
10
-103.03750000000005
20
73.674999999999983
42
-0.41421356237311063
10
-102.53750000000004
20
73.175000000000026
10
-102.53750000000008
20
60.175000000000018
42
-0.41421356237301699
10
-103.03749999999997
20
59.675000000000118
10
-116.03749999999991
20
59.674999999999947
42
-0.41421356237308982
10
-116.53750000000002
20
60.175000000000018
10
-116.53750000000005
20
73.175000000000026
42
-0.41421356237310025
10
-116.03750000000005
20
73.67500000000004
0
LWPOLYLINE
5
113
100
AcDbEntity
8
0
100
AcDbPolyline
90
8
70
1
43
0.0
10
-193.52500000000009
20
16.525000000000016
10
-206.52500000000003
20
16.525000000000016
42
0.41421356237306123
10
-207.02500000000001
20
16.025000000000009
10
-207.02500000000001
20
3.0250000000000021
42
0.41421356237305307
10
-206.52500000000003
20
2.524999999999995
10
-193.52500000000009
20
2.5250000000000128
42
0.41421356237317081
10
-193.02500000000009
20
3.0250000000000021
10
-193.02500000000003
20
16.025000000000009
42
0.41421356237311197
0
LWPOLYLINE
5
114
100
AcDbEntity
8
0
100
AcDbPolyline
90
8
70
1
43
0.0
10
-317.35000000000014
20
35.575000000000081
10
-330.35000000000014
20
35.575000000000045
42
0.41421356237307422
10
-330.85000000000014
20
35.075000000000109
10
-330.85000000000002
20
22.075000000000014
42
0.41421356237301177
10
-330.35000000000014
20
21.574999999999971
10
-317.35000000000014
20
21.575000000000113
42
0.41421356237316265
10
-316.85000000000008
20
22.074999999999978
10
-316.85000000000014
20
35.075000000000109
42
0.41421356237298057
0
LWPOLYLINE
5
115
100
AcDbEntity
8
0
100
AcDbPolyline
90
8
70
1
43
0.0
10
-336.39999999999992
20
35.575000000000017
42
-0.41421356237314183
10
-335.90000000000003
20
35.074999999999896
10
-335.90000000000003
20
22.074999999999996
42
-0.4142135623730222
10
-336.39999999999998
20
21.575000000000024
10
-349.40000000000003
20
21.57500000000006
42
-0.41421356237323032
10
-349.90000000000009
20
22.075000000000191
10
-349.90000000000009
20
35.074999999999967
42
-0.41421356237326412
10
-349.39999999999998
20
35.574999999999974
0
LWPOLYLINE
5
116
100
AcDbEntity
8
0
100
AcDbPolyline
90
8
70
1
43
0.0
10
-197.02500000000001
20
91.724999999999881
10
-203.02500000000009
20
91.724999999999923
42
0.4142135623730846
10
-203.52500000000006
20
91.224999999999909
10
-203.52500000000003
20
77.224999999999895
42
0.41421356237310025
10
-203.02500000000009
20
76.724999999999881
10
-197.02500000000001
20
76.724999999999881
42
0.41421356237304818
10
-196.52500000000003
20
77.224999999999895
10
-196.52500000000006
20
91.224999999999909
42
0.41421356237303258
0
LWPOLYLINE
5
117
100
AcDbEntity
8
0
100
AcDbPolyline
90
8
70
1
43
0.0
10
-183.50000000000009
20
22.075000000000014
10
-183.49999999999994
20
35.075000000000003
42
0.41421356237315227
10
-184
20
35.575000000000223
10
-197.00000000000011
20
35.575000000000117
42
0.41421356237304302
10
-197.50000000000014
20
35.075000000000109
10
-197.50000000000011
20
22.074999999999996
42
0.41421356237302737
10
-197.00000000000011
20
21.575000000000024
10
-184.00000000000006
20
21.575000000000184
42
0.41421356237314966
0
LWPOLYLINE
5
118
100
AcDbEntity
8
0
100
AcDbPolyline
90
8
70
1
43
0.0
10
-126.85000000000005
20
35.575000000000081
10
-139.85000000000008
20
35.575000000000045
42
0.41421356237300916
10
-140.35000000000008
20
35.075000000000038
10
-140.35000000000002
20
22.075000000000014
42
0.41421356237309503
10
-139.85000000000002
20
21.575000000000042
10
-126.85000000000002
20
21.575000000000024
42
0.41421356237312101
10
-126.35000000000005
20
22.075000000000014
10
-126.35000000000002
20
35.075000000000038
42
0.41421356237305079
0
LWPOLYLINE
5
119
100
AcDbEntity
8
0
100
AcDbPolyline
90
8
70
1
43
0.0
10
-317.35000000000019
20
16.525000000000158
10
-330.34999999999997
20
16.525000000000016
42
0.41421356237331486
10
-330.85000000000014
20
16.025000000000151
10
-330.85000000000008
20
3.0249999999999844
42
0.41421356237303941
10
-330.35000000000014
20
2.5250000000000838
10
-317.35000000000008
20
2.5250000000000128
42
0.41421356237314771
10
-316.85000000000008
20
3.0250000000000377
10
-316.85000000000008
20
16.025000000000009
42
0.41421356237311197
0
LWPOLYLINE
5
120
100
AcDbEntity
8
0
100
AcDbPolyline
90
8
70
1
43
0.0
10
-298.30000000000018
20
16.525000000000034
10
-311.30000000000001
20
16.525000000000087
42
0.41421356237316009
10
-311.80000000000007
20
16.025000000000009
10
-311.80000000000001
20
3.0250000000000021
42
0.41421356237307355
10
-311.30000000000007
20
2.524999999999995
10
-298.30000000000013
20
2.5249999999998884
42
0.41421356237302837
10
-297.79999999999995
20
3.0250000000000377
10
-297.80000000000001
20
16.025000000000009
42
0.41421356237315354
0
LWPOLYLINE
5
121
100
AcDbEntity
8
0
100
AcDbPolyline
90
8
70
1
43
0.0
10
-140.63750000000005
20
60.175000000000018
10
-140.63749999999999
20
73.174999999999983
42
0.41421356237312623
10
-141.13750000000005
20
73.67500000000004
10
-154.13749999999999
20
73.674999999999926
42
0.4142135623731939
10
-154.6375000000001
20
73.175000000000068
10
-154.6375000000001
20
60.175000000000018
42
0.41421356237299095
10
-154.13749999999999
20
59.675000000000047
10
-141.13750000000005
20
59.675000000000118
42
0.41421356237315227
0
LWPOLYLINE
5
122
100
AcDbEntity
8
0
100
AcDbPolyline
90
8
70
1
43
0.0
10
-258.262
20
18.024999999999984
10
-258.262
20
4.0249999999999808
42
0.41421356237305668
10
-257.76200000000006
20
3.5249999999999559
10
-251.762
20
3.5249999999999737
42
0.41421356237317469
10
-251.26199999999986
20
4.0249999999999808
10
-251.26199999999994
20
18.024999999999984
42
0.41421356237319779
10
-251.762
20
18.524999999999956
10
-257.76200000000006
20
18.524999999999974
42
0.41421356237307944
0
LWPOLYLINE
5
123
100
AcDbEntity
8
0
100
AcDbPolyline
90
8
70
1
43
0.0
10
-216.05000000000004
20
21.574999999999989
42
-0.4142135623730846
10
-216.55000000000001
20
22.075000000000014
10
-216.54999999999995
20
35.075000000000003
42
-0.41421356237311063
10
-216.05000000000004
20
35.57500000000001
10
-203.05000000000007
20
35.575000000000088
42
-0.41421356237310025
10
-202.55000000000007
20
35.075000000000003
10
-202.55000000000001
20
22.075000000000014
42
-0.4142135623731783
10
-203.05000000000007
20
21.574999999999971
0
LWPOLYLINE
5
124
100
AcDbEntity
8
0
100
AcDbPolyline
90
8
70
1
43
0.0
10
-192.23750000000007
20
59.675000000000054
42
-0.41421356237300661
10
-192.73750000000007
20
60.175000000000054
10
-192.73749999999993
20
73.174999999999926
42
-0.41421356237303258
10
-192.23750000000007
20
73.674999999999898
10
-179.23749999999995
20
73.675000000000054
42
-0.41421356237302737
10
-178.73749999999998
20
73.174999999999983
10
-178.7374999999999
20
60.175000000000018
42
-0.4142135623730534
10
-179.23749999999995
20
59.674999999999976
0
LWPOLYLINE
5
125
100
AcDbEntity
8
0
100
AcDbPolyline
90
8
70
1
43
0.0
10
-144.6125000000001
20
40.624999999999964
10
-131.61249999999998
20
40.625000000000071
42
0.41421356237299095
10
-131.11250000000001
20
41.124999999999936
10
-131.11249999999998
20
54.125000000000014
42
0.41421356237314183
10
-131.61250000000001
20
54.625000000000128
10
-144.61250000000007
20
54.625000000000057
42
0.41421356237297013
10
-145.11250000000007
20
54.125000000000121
10
-145.11250000000007
20
41.125000000000078
42
0.41421356237301699
0
LWPOLYLINE
5
126
100
AcDbEntity
8
0
100
AcDbPolyline
90
8
70
1
43
0.0
10
-149.87500000000006
20
16.025000000000009
10
-149.87500000000006
20
3.0250000000000021
42
0.41421356237303714
10
-149.37500000000006
20
2.5250000000000128
10
-136.37500000000003
20
2.524999999999995
42
0.41421356237311879
10
-135.87500000000003
20
3.0250000000000021
10
-135.87500000000006
20
16.024999999999974
42
0.41421356237309631
10
-136.37500000000006
20
16.524999999999981
10
-149.375
20
16.524999999999981
42
0.41421356237316659
0
LWPOLYLINE
5
127
100
AcDbEntity
8
0
100
AcDbPolyline
90
8
70
1
43
0.0
10
-7.287499999999989
20
22.074999999999978
10
-7.2875000000000956
20
35.075000000000038
42
0.41421356237305473
10
-7.7875000000000316
20
35.574999999999903
10
-20.787500000000001
20
35.575000000000045
42
0.41421356237310025
10
-21.287500000000009
20
35.075000000000003
10
-21.287499999999959
20
22.074999999999978
42
0.41421356237315227
10
-20.787500000000001
20
21.575000000000024
10
-7.7875000000000316
20
21.574999999999935
42
0.41421356237307422
0
LWPOLYLINE
5
128
100
AcDbEntity
8
0
100
AcDbPolyline
90
8
70
1
43
0.0
10
-250.61825000000002
20
60.675000000000026
10
-244.61824999999993
20
60.675000000000026
42
0.41421356237307944
10
-244.11825000000005
20
61.175000000000033
10
-244.11825000000005
20
75.175000000000054
42
0.4142135623730222
10
-244.61824999999999
20
75.675000000000026
10
-250.61825000000002
20
75.674999999999955
42
0.41421356237310542
10
-251.11825000000005
20
75.175000000000054
10
-251.11825000000005
20
61.175000000000033
42
0.4142135623730378
0
LWPOLYLINE
5
129
100
AcDbEntity
8
0
100
AcDbPolyline
90
8
70
1
43
0.0
10
-82.725000000000009
20
91.724999999999881
10
-88.725000000000051
20
91.724999999999881
42
0.41421356237316787
10
-89.225000000000023
20
91.224999999999881
10
-89.225000000000023
20
77.224999999999895
42
0.41421356237301177
10
-88.725000000000051
20
76.724999999999881
10
-82.725000000000009
20
76.724999999999923
42
0.41421356237308982
10
-82.224999999999966
20
77.224999999999895
10
-82.225000000000108
20
91.224999999999909
42
0.41421356237303258
0
LWPOLYLINE
5
130
100
AcDbEntity
8
0
100
AcDbPolyline
90
8
70
1
43
0.0
10
-77.937500000000014
20
59.674999999999933
42
-0.41421356237313145
10
-78.437500000000028
20
60.175000000000161
10
-78.437500000000057
20
73.175000000000026
42
-0.41421356237307944
10
-77.937500000000014
20
73.67500000000004
10
-64.937500000000014
20
73.675000000000097
42
-0.41421356237313667
10
-64.437499999999901
20
73.174999999999926
10
-64.4375
20
60.175000000000018
42
-0.41421356237310025
10
-64.937500000000014
20
59.675000000000047
0
LWPOLYLINE
5
131
100
AcDbEntity
8
0
100
AcDbPolyline
90
8
70
1
43
0.0
10
-31.599999999999973
20
35.575000000000045
42
-0.41421356237310542
10
-31.100000000000023
20
35.074999999999967
10
-31.100000000000023
20
22.074999999999978
42
-0.41421356237309503
10
-31.599999999999973
20
21.575000000000024
10
-44.600000000000009
20
21.57500000000001
42
-0.41421356237305079
10
-45.099999999999987
20
22.074999999999907
10
-45.099999999999966
20
35.075000000000003
42
-0.41421356237310025
10
-44.600000000000016
20
35.574999999999939
0
LWPOLYLINE
5
132
100
AcDbEntity
8
0
100
AcDbPolyline
90
8
70
1
43
0.0
10
-249.38075000000001
20
56.625000000000014
10
-255.38075000000006
20
56.625000000000192
42
0.41421356237308982
10
-255.88075000000029
20
56.125000000000114
10
-255.88074999999992
20
42.124999999999808
42
0.41421356237308982
10
-255.38074999999998
20
41.624999999999979
10
-249.38075000000001
20
41.624999999999943
42
0.41421356237312101
10
-248.88074999999998
20
42.124999999999986
10
-248.88075000000001
20
56.125000000000078
42
0.4142135623731783
0
LWPOLYLINE
5
133
100
AcDbEntity
8
0
100
AcDbPolyline
90
8
70
1
43
0.0
10
-273.20000000000005
20
2.524999999999995
10
-260.20000000000005
20
2.5250000000000306
42
0.41421356237303292
10
-259.70000000000005
20
3.0249999999999844
10
-259.69999999999993
20
16.024999999999974
42
0.41421356237313667
10
-260.20000000000005
20
16.524999999999999
10
-273.20000000000005
20
16.524999999999999
42
0.4142135623732186
10
-273.69999999999999
20
16.024999999999974
10
-273.69999999999999
20
3.0249999999999844
42
0.41421356237308005
0
LWPOLYLINE
5
134
100
AcDbEntity
8
0
100
AcDbPolyline
90
8
70
1
43
0.0
10
-282.13800000000003
20
18.024999999999984
42
-0.41421356237301959
10
-281.63800000000015
20
18.525000000000009
10
-275.63800000000003
20
18.524999999999924
42
-0.41421356237320167
10
-275.13800000000009
20
18.024999999999984
10
-275.13800000000009
20
4.0249999999999808
42
-0.41421356237324036
10
-275.63800000000009
20
3.5249999999999915
10
-281.63800000000015
20
3.524999999999912
42
-0.41421356237296464
10
-282.13800000000009
20
4.0249999999999808
0
LWPOLYLINE
5
135
100
AcDbEntity
8
0
100
AcDbPolyline
90
8
70
1
43
0.0
10
-145.90000000000006
20
35.575000000000074
42
-0.41421356237309243
10
-145.39999999999998
20
35.075000000000003
10
-145.40000000000015
20
22.075000000000014
42
-0.41421356237308204
10
-145.90000000000006
20
21.575000000000042
10
-158.90000000000003
20
21.574999999999982
42
-0.41421356237304818
10
-159.40000000000003
20
22.075000000000014
10
-159.39999999999992
20
35.075000000000003
42
-0.41421356237311846
10
-158.90000000000003
20
35.574999999999974
0
LWPOLYLINE
5
136
100
AcDbEntity
8
0
100
AcDbPolyline
90
8
70
1
43
0.0
10
-317.35000000000019
20
73.67500000000004
10
-330.34999999999997
20
73.674999999999955
42
0.41421356237344364
10
-330.85000000000002
20
73.175000000000026
10
-330.85000000000025
20
60.175000000000018
42
0.41421356237278806
10
-330.35000000000014
20
59.675000000000011
10
-317.35000000000014
20
59.675000000000011
42
0.41421356237310542
10
-316.85000000000008
20
60.175000000000054
10
-316.85000000000008
20
73.174999999999983
42
0.41421356237314705
0
LWPOLYLINE
5
137
100
AcDbEntity
8
0
100
AcDbPolyline
90
8
70
1
43
0.0
10
-28.431250000000013
20
73.174999999999926
42
-0.41421356237312623
10
-27.931249999999991
20
73.67500000000004
10
-14.93125
20
73.675000000000011
42
-0.41421356237308204
10
-14.431249999999958
20
73.174999999999883
10
-14.431250000000036
20
60.175000000000018
42
-0.41421356237307033
10
-14.93125
20
59.675000000000082
10
-27.931249999999999
20
59.675000000000011
42
-0.41421356237301959
10
-28.431250000000013
20
60.175000000000018
0
LWPOLYLINE
5
138
100
AcDbEntity
8
0
100
AcDbPolyline
90
8
70
1
43
0.0
10
-221.59999999999999
20
22.075000000000014
42
-0.41421356237313406
10
-222.10000000000002
20
21.575000000000006
10
-235.09999999999991
20
21.575000000000024
42
-0.41421356237318868
10
-235.59999999999997
20
22.074999999999978
10
-235.60000000000002
20
35.075000000000003
42
-0.41421356237306384
10
-235.10000000000002
20
35.575000000000045
10
-222.10000000000002
20
35.575000000000074
42
-0.41421356237321727
10
-221.59999999999999
20
35.075000000000003
0
LWPOLYLINE
5
139
100
AcDbEntity
8
0
100
AcDbPolyline
90
8
70
1
43
0.0
10
-245.12500000000011
20
16.025000000000009
42
-0.41421356237330836
10
-244.62500000000006
20
16.525000000000052
10
-231.625
20
16.524999999999995
42
-0.41421356237300005
10
-231.125
20
16.025000000000009
10
-231.125
20
3.0250000000000021
42
-0.41421356237291262
10
-231.625
20
2.5250000000000128
10
-244.62500000000006
20
2.5250000000000172
42
-0.41421356237296758
10
-245.12500000000003
20
3.0249999999999844
0
LWPOLYLINE
5
140
100
AcDbEntity
8
0
100
AcDbPolyline
90
8
70
1
43
0.0
10
-212.07500000000007
20
3.0250000000000021
42
-0.41421356237308005
10
-212.57499999999999
20
2.5250000000000128
10
-225.57500000000005
20
2.5250000000000048
42
-0.41421356237303714
10
-226.07499999999999
20
3.0249999999999844
10
-226.07499999999999
20
16.025000000000063
42
-0.41421356237304952
10
-225.57500000000005
20
16.524999999999999
10
-212.57500000000005
20
16.525000000000006
42
-0.41421356237308854
10
-212.07499999999996
20
16.025000000000009
0
LWPOLYLINE
5
141
100
AcDbEntity
8
0
100
AcDbPolyline
90
8
70
1
43
0.0
10
-121.29999999999998
20
35.074999999999967
10
-121.30000000000003
20
22.074999999999978
42
0.41421356237310025
10
-120.80000000000005
20
21.574999999999971
10
-107.80000000000001
20
21.575000000000006
42
0.41421356237310025
10
-107.29999999999997
20
22.075000000000014
10
-107.29999999999993
20
35.074999999999967
42
0.41421356237315748
10
-107.80000000000001
20
35.575000000000081
10
-120.80000000000005
20
35.575000000000081
42
0.41421356237310025
0
LWPOLYLINE
5
142
100
AcDbEntity
8
0
100
AcDbPolyline
90
8
70
1
43
0.0
10
-36.369249999999987
20
60.674999999999969
42
-0.4142135623730846
10
-36.869250000000029
20
61.175000000000033
10
-36.869250000000015
20
75.175000000000054
42
-0.41421356237306384
10
-36.369249999999987
20
75.675000000000068
10
-30.369249999999983
20
75.675000000000011
42
-0.41421356237307944
10
-29.869250000000047
20
75.175000000000054
10
-29.869250000000058
20
61.175000000000033
42
-0.41421356237314705
10
-30.369249999999973
20
60.675000000000061
0
LWPOLYLINE
5
143
100
AcDbEntity
8
0
100
AcDbPolyline
90
8
70
1
43
0.0
10
-278.46250000000003
20
35.075000000000003
10
-278.46249999999998
20
22.07500000000012
42
0.41421356237320689
10
-277.96249999999998
20
21.575000000000077
10
-264.96249999999998
20
21.575000000000042
42
0.41421356237315488
10
-264.46250000000003
20
22.075000000000014
10
-264.46250000000003
20
35.075000000000074
42
0.41421356237315488
10
-264.96250000000003
20
35.575000000000045
10
-277.96249999999998
20
35.575000000000081
42
0.41421356237315748
0
LWPOLYLINE
5
144
100
AcDbEntity
8
0
100
AcDbPolyline
90
8
70
1
43
0.0
10
-130.32500000000005
20
2.524999999999995
10
-117.32500000000005
20
2.5249999999999773
42
0.41421356237308754
10
-116.82500000000005
20
3.0249999999999844
10
-116.82500000000005
20
16.025000000000009
42
0.41421356237308071
10
-117.32500000000002
20
16.524999999999999
10
-130.32499999999999
20
16.524999999999945
42
0.41421356237311974
10
-130.82499999999999
20
16.024999999999974
10
-130.82500000000005
20
3.0249999999999844
42
0.41421356237310086
0
LWPOLYLINE
5
145
100
AcDbEntity
8
0
100
AcDbPolyline
90
8
70
1
43
0.0
10
-23.66875000000001
20
54.125000000000014
10
-23.668749999999974
20
41.125000000000007
42
0.41421356237313667
10
-23.168750000000003
20
40.625000000000036
10
-5.4062499999999947
20
40.625000000000036
42
0.4142135623730846
10
-4.9062500000000231
20
41.125000000000007
10
-4.9062500000000231
20
54.125000000000014
42
0.41421356237309631
10
-5.4062499999999947
20
54.624999999999986
10
-23.168750000000003
20
54.624999999999986
42
0.41421356237307161
0
LWPOLYLINE
5
146
100
AcDbEntity
8
0
100
AcDbPolyline
90
8
70
1
43
0.0
10
-69.200000000000031
20
22.075000000000014
42
-0.41421356237302998
10
-69.699999999999974
20
21.575000000000042
10
-82.700000000000074
20
21.575000000000038
42
-0.41421356237309764
10
-83.200000000000045
20
22.075000000000014
10
-83.19999999999996
20
35.075000000000003
42
-0.41421356237309764
10
-82.700000000000074
20
35.575000000000045
10
-69.699999999999989
20
35.575000000000003
42
-0.41421356237311324
10
-69.199999999999932
20
35.075000000000003
0
LWPOLYLINE
5
147
100
AcDbEntity
8
0
100
AcDbPolyline
90
8
70
1
43
0.0
10
-298.30000000000013
20
92.725000000000051
42
-0.41421356237307422
10
-297.80000000000007
20
92.225000000000037
10
-297.79999999999995
20
79.225000000000065
42
-0.41421356237313145
10
-298.30000000000018
20
78.725000000000051
10
-311.30000000000001
20
78.725000000000051
42
-0.41421356237310025
10
-311.80000000000001
20
79.225000000000023
10
-311.80000000000013
20
92.224999999999895
42
-0.41421356237314705
10
-311.30000000000007
20
92.725000000000051
0
LWPOLYLINE
5
148
100
AcDbEntity
8
0
100
AcDbPolyline
90
8
70
1
43
0.0
10
-83.987499999999926
20
73.674999999999997
10
-96.987499999999969
20
73.67500000000004
42
0.41421356237313667
10
-97.487500000000011
20
73.174999999999983
10
-97.48749999999994
20
60.175000000000054
42
0.41421356237318346
10
-96.987500000000011
20
59.675000000000082
10
-83.98750000000004
20
59.675000000000011
42
0.41421356237310025
10
-83.487500000000026
20
60.175000000000018
10
-83.487500000000026
20
73.175000000000026
42
0.41421356237302737
0
LWPOLYLINE
5
149
100
AcDbEntity
8
0
100
AcDbPolyline
90
8
70
1
43
0.0
10
-7.2874999999999979
20
79.225000000000065
10
-7.287499999999989
20
92.224999999999852
42
0.41421356237309698
10
-7.7874999999999606
20
92.725000000000009
10
-20.787500000000023
20
92.724999999999909
42
0.4142135623730534
10
-21.287499999999973
20
92.224999999999852
10
-21.287500000000009
20
79.225000000000023
42
0.41421356237309243
10
-20.787500000000001
20
78.725000000000037
10
-7.7875000000000316
20
78.724999999999909
42
0.41421356237313794
0
LWPOLYLINE
5
150
100
AcDbEntity
8
0
100
AcDbPolyline
90
8
70
1
43
0.0
10
-106.51250000000002
20
40.625
10
-93.51249999999996
20
40.625000000000036
42
0.41421356237307422
10
-93.012499999999932
20
41.125000000000007
10
-93.012499999999989
20
54.125000000000014
42
0.41421356237310025
10
-93.51249999999996
20
54.624999999999986
10
-106.51250000000002
20
54.624999999999986
42
0.41421356237309503
10
-107.01250000000002
20
54.125000000000014
10
-107.01249999999999
20
41.125000000000007
42
0.41421356237311585
0
LWPOLYLINE
5
151
100
AcDbEntity
8
0
100
AcDbPolyline
90
8
70
1
43
0.0
10
-264.96249999999998
20
92.724999999999994
42
-0.41421356237323032
10
-264.46250000000003
20
92.225000000000037
10
-264.46249999999998
20
79.225000000000023
42
-0.41421356237315227
10
-264.96249999999998
20
78.725000000000051
10
-277.96249999999998
20
78.725000000000037
42
-0.41421356237293894
10
-278.46250000000003
20
79.225000000000023
10
-278.46249999999998
20
92.224999999999994
42
-0.41421356237307422
10
-277.96249999999992
20
92.725000000000009
0
LWPOLYLINE
5
152
100
AcDbEntity
8
0
100
AcDbPolyline
90
8
70
1
43
0.0
10
-87.962500000000006
20
54.125000000000014
10
-87.962500000000006
20
41.125000000000043
42
0.414213562373069
10
-87.462500000000034
20
40.625
10
-74.462500000000006
20
40.625000000000107
42
0.41421356237310025
10
-73.962500000000148
20
41.125000000000078
10
-73.962500000000006
20
54.124999999999979
42
0.41421356237311063
10
-74.462500000000006
20
54.62499999999995
10
-87.462500000000034
20
54.624999999999986
42
0.41421356237310025
0
LWPOLYLINE
5
153
100
AcDbEntity
8
0
100
AcDbPolyline
90
8
70
1
43
0.0
10
-92.225000000000037
20
2.524999999999995
10
-79.225000000000037
20
2.524999999999924
42
0.41421356237308821
10
-78.72499999999998
20
3.0250000000000021
10
-78.724999999999937
20
16.024999999999974
42
0.41421356237307683
10
-79.225000000000051
20
16.525000000000052
10
-92.224999999999966
20
16.525000000000052
42
0.41421356237293766
10
-92.724999999999937
20
16.024999999999974
10
-92.72500000000008
20
3.0249999999999844
42
0.41421356237314999
0
LWPOLYLINE
5
154
100
AcDbEntity
8
0
100
AcDbPolyline
90
8
70
1
43
0.0
10
-211.78750000000008
20
73.175000000000026
10
-211.78750000000002
20
60.175000000000018
42
0.4142135623731783
10
-211.28749999999999
20
59.675000000000047
10
-198.28749999999999
20
59.675000000000011
42
0.41421356237290252
10
-197.78749999999999
20
60.175000000000054
10
-197.78750000000008
20
73.175000000000068
42
0.41421356237304818
10
-198.28749999999999
20
73.674999999999955
10
-211.28749999999999
20
73.675000000000139
42
0.41421356237303258
0
LWPOLYLINE
5
155
100
AcDbEntity
8
0
100
AcDbPolyline
90
8
70
1
43
0.0
10
-317.35000000000019
20
92.72500000000008
10
-330.34999999999997
20
92.724999999999909
42
0.41421356237306384
10
-330.84999999999991
20
92.224999999999852
10
-330.85000000000002
20
79.225000000000023
42
0.41421356237279328
10
-330.34999999999997
20
78.725000000000051
10
-317.35000000000019
20
78.725000000000051
42
0.41421356237288171
10
-316.85000000000014
20
79.225000000000065
10
-316.85000000000008
20
92.225000000000037
42
0.4142135623730534
0
LWPOLYLINE
5
156
100
AcDbEntity
8
0
100
AcDbPolyline
90
8
70
1
43
0.0
10
-216.83750000000003
20
60.175000000000018
42
-0.41421356237293894
10
-217.33750000000001
20
59.675000000000047
10
-230.33749999999992
20
59.674999999999983
42
-0.41421356237308982
10
-230.83750000000012
20
60.175000000000054
10
-230.83750000000009
20
73.174999999999983
42
-0.41421356237300139
10
-230.33750000000001
20
73.675000000000097
10
-217.33750000000001
20
73.674999999999983
42
-0.41421356237294416
10
-216.83750000000006
20
73.175000000000026
0
LWPOLYLINE
5
157
100
AcDbEntity
8
0
100
AcDbPolyline
90
8
70
1
43
0.0
10
-68.412500000000051
20
78.724999999999994
10
-55.412499999999987
20
78.725000000000023
42
0.414213562373069
10
-54.912500000000037
20
79.225000000000023
10
-54.912500000000037
20
92.224999999999994
42
0.41421356237304302
10
-55.412499999999987
20
92.725000000000009
10
-68.412500000000009
20
92.725000000000009
42
0.41421356237297013
10
-68.91249999999998
20
92.224999999999994
10
-68.91250000000008
20
79.225000000000023
42
0.41421356237305862
0
LWPOLYLINE
5
158
100
AcDbEntity
8
0
100
AcDbPolyline
90
8
70
1
43
0.0
10
-55.412499999999987
20
54.624999999999972
42
-0.41421356237311585
10
-54.912500000000016
20
54.125000000000014
10
-54.912500000000044
20
41.124999999999936
42
-0.414213562373069
10
-55.412500000000009
20
40.624999999999964
10
-68.412500000000051
20
40.625000000000036
42
-0.41421356237306384
10
-68.912500000000023
20
41.124999999999936
10
-68.912500000000009
20
54.125000000000014
42
-0.41421356237311585
10
-68.412500000000009
20
54.624999999999986
0
LWPOLYLINE
5
159
100
AcDbEntity
8
0
100
AcDbPolyline
90
8
70
1
43
0.0
10
-240.65000000000001
20
22.075000000000014
42
-0.41421356237310802
10
-241.15000000000003
20
21.574999999999971
10
-254.15000000000015
20
21.574999999999896
42
-0.41421356237319129
10
-254.65000000000009
20
22.07499999999996
10
-254.65000000000001
20
35.075000000000003
42
-0.41421356237324852
10
-254.15000000000009
20
35.575000000000081
10
-241.15000000000003
20
35.575000000000074
42
-0.41421356237321727
10
-240.65000000000001
20
35.075000000000003
0
LWPOLYLINE
5
160
100
AcDbEntity
8
0
100
AcDbPolyline
90
8
70
1
43
0.0
10
-188.76249999999996
20
54.624999999999879
42
-0.41421356237309503
10
-188.26250000000002
20
54.125000000000014
10
-188.26249999999993
20
41.125000000000007
42
-0.41421356237306384
10
-188.76249999999996
20
40.625000000000036
10
-201.76249999999996
20
40.625000000000057
42
-0.4142135623732095
10
-202.26250000000007
20
41.125000000000007
10
-202.26250000000016
20
54.125000000000014
42
-0.41421356237305862
10
-201.76249999999996
20
54.625000000000057
0
LWPOLYLINE
5
161
100
AcDbEntity
8
0
100
AcDbPolyline
90
8
70
1
43
0.0
10
-173.18750000000009
20
59.674999999999883
42
-0.4142135623730846
10
-173.68750000000006
20
60.175000000000125
10
-173.68750000000006
20
73.174999999999841
42
-0.41421356237327711
10
-173.1875
20
73.674999999999997
10
-160.18750000000006
20
73.675000000000068
42
-0.41421356237307422
10
-159.68750000000006
20
73.174999999999983
10
-159.68750000000003
20
60.175000000000018
42
-0.41421356237315748
10
-160.18750000000006
20
59.675000000000118
0
LWPOLYLINE
5
162
100
AcDbEntity
8
0
100
AcDbPolyline
90
8
70
1
43
0.0
10
-279.75675000000012
20
56.125000000000078
10
-279.75675000000001
20
42.12499999999995
42
0.41421356237304818
10
-279.25675000000007
20
41.625000000000121
10
-273.25675000000001
20
41.624999999999979
42
0.41421356237294416
10
-272.75675000000001
20
42.124999999999986
10
-272.75675000000007
20
56.125000000000007
42
0.41421356237299617
10
-273.25675000000001
20
56.62500000000005
10
-279.25675000000007
20
56.625000000000121
42
0.41421356237305862
0
LWPOLYLINE
5
163
100
AcDbEntity
8
0
100
AcDbPolyline
90
8
70
1
43
0.0
10
-168.42500000000007
20
2.5249999999999773
10
-155.42500000000004
20
2.5250000000000306
42
0.41421356237309437
10
-154.92500000000004
20
3.0250000000000377
10
-154.9250000000001
20
16.025000000000009
42
0.41421356237307294
10
-155.42500000000007
20
16.525000000000016
10
-168.42500000000004
20
16.524999999999981
42
0.41421356237315227
10
-168.92500000000007
20
16.025000000000009
10
-168.92500000000007
20
3.0249999999999844
42
0.41421356237303847
0
LWPOLYLINE
5
164
100
AcDbEntity
8
0
100
AcDbPolyline
90
8
70
1
43
0.0
10
-336.39999999999998
20
92.724999999999952
42
-0.41421356237304302
10
-335.90000000000009
20
92.224999999999852
10
-335.90000000000003
20
79.224999999999881
42
-0.41421356237298057
10
-336.39999999999998
20
78.724999999999952
10
-349.39999999999992
20
78.725000000000037
42
-0.41421356237311063
10
-349.90000000000003
20
79.225000000000023
10
-349.89999999999998
20
92.224999999999994
42
-0.4142135623730222
10
-349.40000000000003
20
92.724999999999909
0
LWPOLYLINE
5
165
100
AcDbEntity
8
0
100
AcDbPolyline
90
8
70
1
43
0.0
10
-22.075000000000003
20
16.524999999999981
10
-35.07500000000001
20
16.524999999999945
42
0.41421356237309892
10
-35.574999999999982
20
16.024999999999974
10
-35.575000000000017
20
3.0249999999999844
42
0.41421356237307355
10
-35.07500000000001
20
2.5249999999999773
10
-22.075000000000003
20
2.5249999999999773
42
0.41421356237307355
10
-21.574999999999996
20
3.0249999999999844
10
-21.575000000000017
20
16.024999999999974
42
0.41421356237312235
0
LWPOLYLINE
5
166
100
AcDbEntity
8
0
100
AcDbPolyline
90
8
70
1
43
0.0
10
-50.649999999999984
20
35.574999999999939
10
-63.650000000000048
20
35.574999999999974
42
0.41421356237310802
10
-64.149999999999977
20
35.075000000000003
10
-64.150000000000006
20
22.074999999999942
42
0.41421356237310281
10
-63.650000000000048
20
21.575000000000024
10
-50.650000000000006
20
21.575000000000024
42
0.41421356237311846
10
-50.150000000000013
20
22.074999999999978
10
-50.150000000000048
20
35.074999999999967
42
0.41421356237308721
0
LWPOLYLINE
5
167
100
AcDbEntity
8
0
100
AcDbPolyline
90
8
70
1
43
0.0
10
-270.81875000000002
20
40.624999999999986
42
-0.41421356237287649
10
-271.31875000000014
20
41.125000000000043
10
-271.31875000000008
20
54.125000000000014
42
-0.41421356237278284
10
-270.81875000000002
20
54.624999999999986
10
-257.81875000000008
20
54.625000000000064
42
-0.41421356237320428
10
-257.31874999999997
20
54.125000000000014
10
-257.31874999999997
20
41.125000000000078
42
-0.41421356237313145
10
-257.81875000000008
20
40.624999999999964
0
LWPOLYLINE
5
168
100
AcDbEntity
8
0
100
AcDbPolyline
90
8
70
1
43
0.0
10
-311.30000000000001
20
21.575000000000042
10
-298.30000000000007
20
21.575000000000042
42
0.41421356237312623
10
-297.79999999999995
20
22.075000000000014
10
-297.79999999999995
20
35.075000000000003
42
0.41421356237315748
10
-298.30000000000007
20
35.575000000000081
10
-311.30000000000001
20
35.575000000000081
42
0.41421356237311846
10
-311.80000000000007
20
35.075000000000038
10
-311.80000000000013
20
22.074999999999996
42
0.41421356237310542
0
LWPOLYLINE
5
169
100
AcDbEntity
8
0
100
AcDbPolyline
90
8
70
1
43
0.0
10
-178.44999999999987
20
35.075000000000003
10
-178.44999999999999
20
22.075000000000014
42
0.41421356237324852
10
-177.94999999999993
20
21.575000000000042
10
-164.9500000000001
20
21.574999999999971
42
0.41421356237311846
10
-164.44999999999996
20
22.075000000000014
10
-164.44999999999999
20
35.075000000000003
42
0.41421356237305601
10
-164.9500000000001
20
35.575000000000081
10
-177.94999999999999
20
35.574999999999974
42
0.414213562373069
0
LWPOLYLINE
5
170
100
AcDbEntity
8
0
100
AcDbPolyline
90
8
70
1
43
0.0
10
-135.08749999999992
20
59.67500000000004
42
-0.41421356237312101
10
-135.58749999999998
20
60.175000000000018
10
-135.58750000000001
20
73.175000000000026
42
-0.41421356237297013
10
-135.08749999999998
20
73.674999999999997
10
-122.08750000000002
20
73.675000000000082
42
-0.41421356237307944
10
-121.58749999999998
20
73.174999999999983
10
-121.58750000000015
20
60.175000000000018
42
-0.41421356237308982
10
-122.08750000000002
20
59.675000000000118
0
LWPOLYLINE
5
171
100
AcDbEntity
8
0
100
AcDbPolyline
90
8
70
1
43
0.0
10
-240.36250000000001
20
54.124999999999979
10
-240.36250000000007
20
41.125000000000007
42
0.41421356237313145
10
-239.86250000000001
20
40.624999999999964
10
-226.86250000000001
20
40.625
42
0.41421356237315748
10
-226.36249999999995
20
41.125000000000078
10
-226.36250000000004
20
54.125000000000014
42
0.41421356237310025
10
-226.86250000000001
20
54.624999999999986
10
-239.8625000000001
20
54.624999999999986
42
0.41421356237306384
0
LWPOLYLINE
5
172
100
AcDbEntity
8
0
100
AcDbPolyline
90
8
70
1
43
0.0
10
-207.81249999999997
20
54.624999999999993
42
-0.41421356237316265
10
-207.31250000000003
20
54.125000000000014
10
-207.31250000000003
20
41.125000000000078
42
-0.4142135623731939
10
-207.81249999999997
20
40.624999999999964
10
-220.8125
20
40.624999999999922
42
-0.41421356237307944
10
-221.31250000000009
20
41.125000000000043
10
-221.31250000000017
20
54.125000000000014
42
-0.41421356237299095
10
-220.8125
20
54.624999999999986
0
LWPOLYLINE
5
173
100
AcDbEntity
8
0
100
AcDbPolyline
90
8
70
1
43
0.0
10
-59.675000000000018
20
3.0249999999999844
10
-59.675000000000004
20
16.025000000000009
42
0.41421356237310542
10
-60.17499999999999
20
16.525000000000016
10
-73.175000000000011
20
16.524999999999981
42
0.41421356237307161
10
-73.675000000000026
20
16.025000000000009
10
-73.675000000000026
20
3.0249999999999844
42
0.41421356237309731
10
-73.175000000000011
20
2.5249999999999595
10
-60.17499999999999
20
2.5250000000000128
42
0.41421356237309631
0
LWPOLYLINE
5
174
100
AcDbEntity
8
0
100
AcDbPolyline
90
8
70
1
43
0.0
10
-274.99425000000002
20
75.175000000000054
42
-0.41421356237306384
10
-274.49424999999997
20
75.675000000000026
10
-268.49425000000002
20
75.674999999999983
42
-0.41421356237304818
10
-267.99424999999997
20
75.175000000000054
10
-267.99425000000002
20
61.175000000000033
42
-0.4142135623731783
10
-268.49425000000002
20
60.67499999999999
10
-274.49424999999997
20
60.674999999999827
42
-0.41421356237318868
10
-274.99425000000002
20
61.175000000000033
0
LWPOLYLINE
5
175
100
AcDbEntity
8
0
100
AcDbPolyline
90
8
70
1
43
0.0
10
-266.05624999999998
20
59.675000000000011
10
-253.05625000000003
20
59.675000000000047
42
0.41421356237302737
10
-252.55625000000003
20
60.175000000000018
10
-252.55625000000003
20
73.175000000000026
42
0.41421356237323032
10
-253.05625000000003
20
73.67500000000004
10
-266.05624999999998
20
73.674999999999997
42
0.41421356237299617
10
-266.55624999999998
20
73.175000000000026
10
-266.55625000000009
20
60.175000000000018
42
0.41421356237309503
0
LWPOLYLINE
5
176
100
AcDbEntity
8
0
100
AcDbPolyline
90
8
70
1
43
0.0
10
-102.25000000000006
20
35.075000000000109
42
-0.41421356237307161
10
-101.75
20
35.575000000000045
10
-88.75
20
35.575000000000038
42
-0.41421356237317569
10
-88.25
20
35.074999999999896
10
-88.250000000000028
20
22.074999999999978
42
-0.41421356237311846
10
-88.75
20
21.575000000000042
10
-101.75
20
21.575000000000024
42
-0.41421356237311585
10
-102.25000000000001
20
22.074999999999996
0
LWPOLYLINE
5
177
100
AcDbEntity
8
0
100
AcDbPolyline
90
8
70
1
43
0.0
10
-35.862500000000011
20
41.124999999999936
42
-0.41421356237306123
10
-36.362499999999976
20
40.625000000000036
10
-49.362500000000018
20
40.624999999999993
42
-0.41421356237311063
10
-49.862500000000026
20
41.125000000000007
10
-49.86249999999999
20
54.125000000000014
42
-0.41421356237303258
10
-49.362500000000018
20
54.624999999999858
10
-36.362499999999976
20
54.62499999999995
42
-0.41421356237309503
10
-35.86250000000004
20
54.125000000000014
0
LWPOLYLINE
5
178
100
AcDbEntity
8
0
100
AcDbPolyline
90
8
70
1
43
0.0
10
-16.024999999999999
20
2.5249999999999773
42
-0.41421356237306384
10
-16.525000000000027
20
3.0249999999999844
10
-16.525000000000016
20
16.024999999999974
42
-0.41421356237311846
10
-16.024999999999999
20
16.524999999999981
10
-3.0249999999999755
20
16.524999999999999
42
-0.41421356237305534
10
-2.5250000000000572
20
16.025000000000009
10
-2.5250000000000039
20
3.0249999999999844
42
-0.41421356237309503
10
-3.0249999999999755
20
2.5249999999999417
0
ENDSEC
0
SECTION
2
OBJECTS
0
DICTIONARY
5
C
100
AcDbDictionary
3
ACAD_GROUP
350
D
3
ACAD_MLINESTYLE
350
17
0
DICTIONARY
5
D
100
AcDbDictionary
0
DICTIONARY
5
1A
330
C
100
AcDbDictionary
0
DICTIONARY
5
17
100
AcDbDictionary
0
ENDSEC
0
EOF
