0
SECTION
2
HEADER
9
$INSUNITS
70
4
9
$ACADVER
1
AC1014
9
$HANDSEED
5
FFFF
0
ENDSEC
0
SECTION
2
TABLES
0
TABLE
2
VPORT
5
8
100
AcDbSymbolTable
0
ENDTAB
0
TABLE
2
LTYPE
5
5
100
AcDbSymbolTable
0
LTYPE
5
14
100
AcDbSymbolTableRecord
100
AcDbLinetypeTableRecord
2
BYBLOCK
70
0
0
LTYPE
5
15
100
AcDbSymbolTableRecord
100
AcDbLinetypeTableRecord
2
BYLAYER
70
0
0
ENDTAB
0
TABLE
2
LAYER
5
2
100
AcDbSymbolTable
70
2
0
LAYER
5
50
100
AcDbSymbolTableRecord
100
AcDbLayerTableRecord
2
0
70
0
6
CONTINUOUS
0
ENDTAB
0
TABLE
2
STYLE
5
3
100
AcDbSymbolTable
70
1
0
STYLE
5
11
100
AcDbSymbolTableRecord
100
AcDbTextStyleTableRecord
2
STANDARD
70
0
0
ENDTAB
0
TABLE
2
VIEW
5
6
100
AcDbSymbolTable
70
0
0
ENDTAB
0
TABLE
2
UCS
5
7
100
AcDbSymbolTable
70
0
0
ENDTAB
0
TABLE
2
APPID
5
9
100
AcDbSymbolTable
70
2
0
APPID
5
12
100
AcDbSymbolTableRecord
100
AcDbRegAppTableRecord
2
ACAD
70
0
0
ENDTAB
0
TABLE
2
DIMSTYLE
5
A
100
AcDbSymbolTable
70
1
0
ENDTAB
0
TABLE
2
BLOCK_RECORD
5
1
100
AcDbSymbolTable
70
1
0
BLOCK_RECORD
5
1F
100
AcDbSymbolTableRecord
100
AcDbBlockTableRecord
2
*MODEL_SPACE
0
BLOCK_RECORD
5
1B
100
AcDbSymbolTableRecord
100
AcDbBlockTableRecord
2
*PAPER_SPACE
0
ENDTAB
0
ENDSEC
0
SECTION
2
BLOCKS
0
BLOCK
5
20
100
AcDbEntity
100
AcDbBlockBegin
2
*MODEL_SPACE
0
ENDBLK
5
21
100
AcDbEntity
100
AcDbBlockEnd
0
BLOCK
5
1C
100
AcDbEntity
100
AcDbBlockBegin
2
*PAPER_SPACE
0
ENDBLK
5
1D
100
AcDbEntity
100
AcDbBlockEnd
0
ENDSEC
0
SECTION
2
ENTITIES
0
LWPOLYLINE
5
100
100
AcDbEntity
8
0
100
AcDbPolyline
90
16
70
1
43
0.0
10
-325.87300538705739
20
70.542868713554952
42
-0.47328481771515979
10
-325.62786021813463
20
70.243839679770417
10
-325.74571246460312
20
69.654578447427923
42
0.47328481771501313
10
-325.50056729568036
20
69.355549413643388
10
-324.6188205792364
20
69.355549413643388
42
0.35751076502769796
10
-324.37367541031364
20
69.556520379858867
10
-324.2165999368176
20
70.341897747339488
42
-0.35751076502766843
10
-323.97145476789484
20
70.542868713554952
10
-320.14014173166299
20
70.542868713554952
42
0.35751076502767237
10
-319.89499656274035
20
70.743839679770417
10
-319.7685775334549
20
71.375934826197664
42
0.47328481771504294
10
-320.01372270237761
20
71.674963859982228
10
-329.38894422470065
20
71.674963859982213
42
0.35751076502770779
10
-329.63408939362341
20
71.473992893766734
10
-329.76050842290874
20
70.841897747339488
42
0.47328481771501313
10
-329.51536325398598
20
70.542868713554952
0
LWPOLYLINE
5
101
100
AcDbEntity
8
0
100
AcDbPolyline
90
24
70
1
43
0.0
10
-322.0603504457647
20
75.568266680622401
42
-0.47112411664705883
10
-321.81486491214537
20
75.270971302585693
10
-321.83450535923294
20
75.169028029607261
42
-0.35950459744923741
10
-322.07999089285227
20
74.96632340764404
10
-327.26841890790553
20
74.96632340764404
42
0.35739989457394655
10
-327.51354477787822
20
74.765448837618123
10
-327.95453698304647
20
72.564987732237881
42
0.47340515348110129
10
-327.70941111307377
20
72.265862302263812
10
-321.23910238599984
20
72.265862302263812
42
0.35751076502766843
10
-320.99395721707708
20
72.466833268479263
10
-320.87306060314
20
73.071316338164422
42
0.47328481771502379
10
-321.11820577206277
20
73.370345371948972
10
-326.10914920130324
20
73.370345371949085
42
-0.47218457235342354
10
-326.35446914652908
20
73.66849227708677
10
-326.33662926533361
20
73.759390719368298
42
-0.35852530827895934
10
-326.09130932010777
20
73.961243814230514
10
-320.90231693120302
20
73.961243814230514
42
0.35762120895422705
10
-320.65715257660895
20
74.1623108065926
10
-320.21575220647549
20
76.373816742669732
42
0.47316496443110756
10
-320.46091656106955
20
76.672749750307631
10
-327.19102291602701
20
76.672749750307631
42
0.35751076502768814
10
-327.43616808494977
20
76.471778784092166
10
-327.55706469888679
20
75.867295714406993
42
0.47328481771502379
10
-327.31191952996403
20
75.568266680622443
0
SPLINE
5
102
100
AcDbEntity
8
0
100
AcDbSpline
70
0
71
3
72
14
73
10
74
0
42
0.000000001
43
0.0000000001
44
0.0000000001
40
0
40
0
40
0
40
0
40
0.0097661118346745179
40
0.0097661118346745179
40
0.01953222366934354
40
0.01953222366934354
40
0.029298335504017017
40
0.029298335504017017
40
0.038469917219065605
40
0.038469917219065605
40
0.038469917219065605
40
0.038469917219065605
10
-325.18504801516747
20
68.220001603260926
30
0
10
-325.21026828904888
20
68.199418076663008
30
0
10
-325.23926786381998
20
68.1839574201028
30
0
10
-325.30156101692859
20
68.165022315053534
30
0
10
-325.33425903876997
20
68.161728896489166
30
0
10
-325.39907702582263
20
68.167861080591877
30
0
10
-325.43057729574923
20
68.177228056236629
30
0
10
-325.48645989801406
20
68.206587583509759
30
0
10
-325.51068767390967
20
68.225651045686647
30
0
10
-325.53087405398105
20
68.248610869660325
30
0
0
SPLINE
5
103
100
AcDbEntity
8
0
100
AcDbSpline
70
0
71
2
72
6
73
3
74
0
42
0.000000001
43
0.0000000001
44
0.0000000001
40
0.062270969109587557
40
0.062270969109587557
40
0.062270969109587557
40
1
40
1
40
1
10
-325.18504801516747
20
68.220001603260911
30
0
10
-323.72107981538159
20
69.41481925355744
30
0
10
-321.18877904007604
20
69.808387472214321
30
0
0
LINE
5
104
100
AcDbEntity
8
0
100
AcDbLine
10
-321.18877904007604
20
69.808387472214307
30
0
11
-320.82846437187777
21
69.110277802579972
31
0
0
SPLINE
5
105
100
AcDbEntity
8
0
100
AcDbSpline
70
0
71
3
72
16
73
12
74
0
42
0.000000001
43
0.0000000001
44
0.0000000001
40
0
40
0
40
0
40
0
40
0.0097661118346700441
40
0.0097661118346700441
40
0.019532223669346413
40
0.019532223669346413
40
0.029298335504017031
40
0.029298335504017031
40
0.039064447338690515
40
0.039064447338690515
40
0.048588385989827405
40
0.048588385989827405
40
0.048588385989827405
40
0.048588385989827405
10
-321.02323193964276
20
68.747121761699759
30
0
10
-320.99087416634927
20
68.750688032770285
30
0
10
-320.95952232304705
20
68.760540400999702
30
0
10
-320.90235989892227
20
68.791708211247141
30
0
10
-320.87709582203036
20
68.81272567201141
30
0
10
-320.8360460168517
20
68.863261685133025
30
0
10
-320.82065274707622
20
68.892297085660658
30
0
10
-320.80186235514896
20
68.954634043387628
30
0
10
-320.79864487938539
20
68.987339625294837
30
0
10
-320.80484967547977
20
69.051339720193511
30
0
10
-320.81390408177555
20
69.082067240506888
30
0
10
-320.82846437187777
20
69.110277802579972
30
0
0
SPLINE
5
106
100
AcDbEntity
8
0
100
AcDbSpline
70
0
71
2
72
6
73
3
74
0
42
0.000000001
43
0.0000000001
44
0.0000000001
40
0.10401095081697712
40
0.10401095081697712
40
0.10401095081697712
40
1
40
1
40
1
10
-321.02323193964281
20
68.747121761699717
30
0
10
-322.56586153347598
20
68.577102791508935
30
0
10
-323.62968662408036
20
68.008080068627464
30
0
0
SPLINE
5
107
100
AcDbEntity
8
0
100
AcDbSpline
70
0
71
2
72
6
73
3
74
0
42
0.000000001
43
0.0000000001
44
0.0000000001
40
0
40
0
40
0
40
1
40
1
40
1
10
-323.62968662408036
20
68.008080068627464
30
0
10
-324.81700592399193
20
67.373002303558508
30
0
10
-324.94954389235409
20
66.710312461747421
30
0
0
LINE
5
108
100
AcDbEntity
8
0
100
AcDbLine
10
-324.94954389235409
20
66.710312461747421
30
0
11
-324.99770834468586
21
66.469490200088771
31
0
0
ARC
5
109
100
AcDbEntity
8
0
100
AcDbCircle
10
-325.24285351360857
20
66.518519233873349
30
0
40
0.25000000000000355
210
-0
220
0
230
1
100
AcDbArc
50
270
51
348.69006752597153
0
LINE
5
110
100
AcDbEntity
8
0
100
AcDbLine
10
-325.24285351360857
20
66.268519233873349
30
0
11
-326.10251056865883
21
66.268519233873349
31
0
0
ARC
5
111
100
AcDbEntity
8
0
100
AcDbCircle
10
-326.10251056865883
20
66.518519233873349
30
0
40
0.25000000000001399
210
0
220
0
230
1
100
AcDbArc
50
168.69006752598366
51
270
0
LINE
5
112
100
AcDbEntity
8
0
100
AcDbLine
10
-326.34765573758159
20
66.567548267657884
30
0
11
-326.31910289876373
21
66.710312461747421
31
0
0
SPLINE
5
113
100
AcDbEntity
8
0
100
AcDbSpline
70
0
71
2
72
6
73
3
74
0
42
0.000000001
43
0.0000000001
44
0.0000000001
40
0
40
0
40
0
40
1
40
1
40
1
10
-326.31910289876373
20
66.710312461747421
30
0
10
-326.18656493040135
20
67.373002303558508
30
0
10
-327.15298761637598
20
68.019124899324339
30
0
0
SPLINE
5
114
100
AcDbEntity
8
0
100
AcDbSpline
70
0
71
2
72
6
73
3
74
0
42
0.000000001
43
0.0000000001
44
0.0000000001
40
0
40
0
40
0
40
0.85643553855147514
40
0.85643553855147514
40
0.85643553855147514
10
-327.15298761637598
20
68.019124899324339
30
0
10
-327.98539594266992
20
68.567757659836303
30
0
10
-329.31197641063079
20
68.743736018435527
30
0
0
SPLINE
5
115
100
AcDbEntity
8
0
100
AcDbSpline
70
0
71
3
72
18
73
14
74
0
42
0.000000001
43
0.0000000001
44
0.0000000001
40
0
40
0
40
0
40
0
40
0.009766111834676492
40
0.009766111834676492
40
0.0195322236693488
40
0.0195322236693488
40
0.029298335504023457
40
0.029298335504023457
40
0.039064447338695123
40
0.039064447338695123
40
0.046276559963788502
40
0.046276559963788502
40
0.053488672588875075
40
0.053488672588875075
40
0.053488672588875075
40
0.053488672588875075
10
-329.4711558303066
20
69.151611041571869
30
0
10
-329.49199620511308
20
69.126602591804115
30
0
10
-329.50775262823265
20
69.097762647826102
30
0
10
-329.52732380747671
20
69.035666399385192
30
0
10
-329.53095145246044
20
69.00300376890246
30
0
10
-329.52548247463488
20
68.938126458469767
30
0
10
-329.51643813823421
20
68.906532040968386
30
0
10
-329.48674792760937
20
68.848588391441567
30
0
10
-329.46638590798108
20
68.82279313228733
30
0
10
-329.42338831341772
20
68.785995076275114
30
0
10
-329.40296396912652
20
68.773079740224844
30
0
10
-329.35905948594126
20
68.75347986887347
30
0
10
-329.33580801205756
20
68.746897414372768
30
0
10
-329.31197641064415
20
68.743736018437303
30
0
0
LINE
5
116
100
AcDbEntity
8
0
100
AcDbLine
10
-329.4711558303066
20
69.151611041571869
30
0
11
-329.00571975758345
21
69.710134328839629
31
0
0
SPLINE
5
117
100
AcDbEntity
8
0
100
AcDbSpline
70
0
71
3
72
12
73
8
74
0
42
0.000000001
43
0.0000000001
44
0.0000000001
40
0
40
0
40
0
40
0
40
0.0097661118346706738
40
0.0097661118346706738
40
0.017939665831321373
40
0.017939665831321373
40
0.02611321982796988
40
0.02611321982796988
40
0.02611321982796988
40
0.02611321982796988
10
-328.77240371220751
20
69.796659826097908
30
0
10
-328.80451098945093
20
69.802032584223042
30
0
10
-328.83736072275838
20
69.801082710646781
30
0
10
-328.89567072231864
20
69.787821838480639
30
0
10
-328.92107209826128
20
69.777477530083331
30
0
10
-328.96753109563576
20
69.749003666744215
30
0
10
-328.98827781838855
20
69.73106465587351
30
0
10
-329.00571975758345
20
69.710134328839629
30
0
0
SPLINE
5
118
100
AcDbEntity
8
0
100
AcDbSpline
70
0
71
2
72
6
73
3
74
0
42
0.000000001
43
0.0000000001
44
0.0000000001
40
0.02879404211225451
40
0.02879404211225451
40
0.02879404211225451
40
0.92906792334820798
40
0.92906792334820798
40
0.92906792334820798
10
-328.77240371220751
20
69.796659826097937
30
0
10
-326.56753663168274
20
69.427702426444171
30
0
10
-325.53087405398105
20
68.248610869660325
30
0
0
LWPOLYLINE
5
119
100
AcDbEntity
8
0
100
AcDbPolyline
90
12
70
1
43
0.0
10
-311.34919129653736
20
75.330802820640159
42
-0.47342040285169101
10
-311.10406787477308
20
75.031665176185115
10
-311.46458724940607
20
73.233212203878381
42
0.47342040285172299
10
-311.21946382764179
20
72.934074559423323
10
-310.33785493762247
20
72.934074559423323
42
0.35751076502767043
10
-310.09270976869976
20
73.135045525638787
10
-309.48031818875273
20
76.197003425373453
42
0.47328481771504294
10
-309.72546335767549
20
76.496032459158002
10
-316.30062924921521
20
76.496032459158002
42
0.35776780822503512
10
-316.54581901000591
20
76.294838003959924
10
-316.67823438828907
20
75.629608365442081
42
0.47300590563752848
10
-316.43304462749836
20
75.330802820640145
0
ARC
5
120
100
AcDbEntity
8
0
100
AcDbCircle
10
-311.49073796501801
20
68.202855915143203
30
0
40
0.24999999999999564
210
0
220
0
230
1
100
AcDbArc
50
168.78936687111423
51
270
0
LINE
5
121
100
AcDbEntity
8
0
100
AcDbLine
10
-311.49073796501801
20
67.952855915143203
30
0
11
-309.90827810629719
21
67.952855915143232
31
0
0
ARC
5
122
100
AcDbEntity
8
0
100
AcDbCircle
10
-309.90827810629719
20
67.702855915143232
30
0
40
0.24999999999998501
210
-0
220
0
230
1
100
AcDbArc
50
-11.415839524416839
51
90
0
LINE
5
123
100
AcDbEntity
8
0
100
AcDbLine
10
-309.66322398269085
20
67.653373832491909
30
0
11
-309.79420388886331
21
67.004711440019321
31
0
0
ARC
5
124
100
AcDbEntity
8
0
100
AcDbCircle
10
-310.03925801246965
20
67.054193522670644
30
0
40
0.25000000000000355
210
-0
220
0
230
1
100
AcDbArc
50
270
51
348.58416047558313
0
LINE
5
125
100
AcDbEntity
8
0
100
AcDbLine
10
-310.03925801246965
20
66.804193522670644
30
0
11
-315.25038891746306
21
66.804193522670658
31
0
0
ARC
5
126
100
AcDbEntity
8
0
100
AcDbCircle
10
-315.25038891746306
20
67.054193522670658
30
0
40
0.25000000000001105
210
0
220
0
230
1
100
AcDbArc
50
168.58416047559538
51
270
0
LINE
5
127
100
AcDbEntity
8
0
100
AcDbLine
10
-315.49544304106945
20
67.103675605321939
30
0
11
-315.36446313489716
21
67.752337997794513
31
0
0
ARC
5
128
100
AcDbEntity
8
0
100
AcDbCircle
10
-315.11940901129071
20
67.702855915143232
30
0
40
0.25000000000000355
210
0
220
-0
230
1
100
AcDbArc
50
90
51
168.58416047559791
0
LINE
5
129
100
AcDbEntity
8
0
100
AcDbLine
10
-315.11940901129071
20
67.952855915143232
30
0
11
-313.39292488433546
21
67.952855915143218
31
0
0
ARC
5
130
100
AcDbEntity
8
0
100
AcDbCircle
10
-313.39292488433546
20
68.202855915143275
30
0
40
0.25000000000005684
210
0
220
0
230
1
100
AcDbArc
50
270
51
349.0113489035204
0
LINE
5
131
100
AcDbEntity
8
0
100
AcDbLine
10
-313.14750864462974
20
68.155202276365529
30
0
11
-313.07635089323844
21
68.52166469603111
31
0
0
SPLINE
5
132
100
AcDbEntity
8
0
100
AcDbSpline
70
0
71
2
72
6
73
3
74
0
42
0.000000001
43
0.0000000001
44
0.0000000001
40
0
40
0
40
0
40
1
40
1
40
1
10
-313.07635089323844
20
68.52166469603111
30
0
10
-312.88306635604374
20
69.482564966657193
30
0
10
-313.45739755227987
20
70.277792776830509
30
0
0
SPLINE
5
133
100
AcDbEntity
8
0
100
AcDbSpline
70
0
71
2
72
6
73
3
74
0
42
0.000000001
43
0.0000000001
44
0.0000000001
40
0
40
0
40
0
40
0.82879121302620762
40
0.82879121302620762
40
0.82879121302620762
10
-313.45739755227987
20
70.277792776830509
30
0
10
-313.93797513040278
20
70.932293668940758
30
0
10
-314.74477812526487
20
71.298502332304807
30
0
0
SPLINE
5
134
100
AcDbEntity
8
0
100
AcDbSpline
70
0
71
3
72
16
73
12
74
0
42
0.000000001
43
0.0000000001
44
0.0000000001
40
0
40
0
40
0
40
0
40
0.0097661118346738102
40
0.0097661118346738102
40
0.019532223669348245
40
0.019532223669348245
40
0.029298335504020768
40
0.029298335504020768
40
0.03906444733869479
40
0.03906444733869479
40
0.048792006288690126
40
0.048792006288690126
40
0.048792006288690126
40
0.048792006288690126
10
-314.81547122519339
20
71.705638084325415
30
0
10
-314.83884334027636
20
71.682977810310987
30
0
10
-314.85756594979574
20
71.655969087072677
30
0
10
-314.88360447860987
20
71.59629522223527
30
0
10
-314.89067145537706
20
71.564200595308776
30
0
10
-314.89210527576898
20
71.4991089730635
30
0
10
-314.8864584112892
20
71.466734289131054
30
0
10
-314.86307282311634
20
71.405971723408015
30
0
10
-314.84555767839231
20
71.378164764863868
30
0
10
-314.80094267329355
20
71.330923267161566
30
0
10
-314.77430410142381
20
71.311904201574663
30
0
10
-314.74477812526487
20
71.298502332304807
30
0
0
LINE
5
135
100
AcDbEntity
8
0
100
AcDbLine
10
-314.81547122519339
20
71.705638084325415
30
0
11
-314.13846286691273
21
72.362026898699142
31
0
0
SPLINE
5
136
100
AcDbEntity
8
0
100
AcDbSpline
70
0
71
3
72
14
73
10
74
0
42
0.000000001
43
0.0000000001
44
0.0000000001
40
0
40
0
40
0
40
0
40
0.0097661118346726705
40
0.0097661118346726705
40
0.019532223669343964
40
0.019532223669343964
40
0.026081951909912904
40
0.026081951909912904
40
0.032631680150480874
40
0.032631680150480874
40
0.032631680150480874
40
0.032631680150480874
10
-313.83759717251911
20
72.397969512280028
30
0
10
-313.86564954872017
20
72.414486411847804
30
0
10
-313.89665984668187
20
72.425366147989124
30
0
10
-313.96110533275521
20
72.434626517971466
30
0
10
-313.99392438689449
20
72.432918617628147
30
0
10
-314.04666387408349
20
72.419637126097726
30
0
10
-314.06704594580896
20
72.411555045012591
30
0
10
-314.10518999050731
20
72.390302953098399
30
0
10
-314.12278815370115
20
72.377224209477873
30
0
10
-314.13846286691273
20
72.362026898699142
30
0
0
SPLINE
5
137
100
AcDbEntity
8
0
100
AcDbSpline
70
0
71
2
72
6
73
3
74
0
42
0.000000001
43
0.0000000001
44
0.0000000001
40
0.062346023400468888
40
0.062346023400468888
40
0.062346023400468888
40
0.8648389152392244
40
0.8648389152392244
40
0.8648389152392244
10
-313.83759717251905
20
72.397969512279985
30
0
10
-312.78442324405353
20
71.777873450571818
30
0
10
-312.20780785315134
20
70.819918724173363
30
0
0
SPLINE
5
138
100
AcDbEntity
8
0
100
AcDbSpline
70
0
71
3
72
16
73
12
74
0
42
0.000000001
43
0.0000000001
44
0.0000000001
40
0
40
0
40
0
40
0
40
0.0097661118346733262
40
0.0097661118346733262
40
0.019532223669346538
40
0.019532223669346538
40
0.029298335504020112
40
0.029298335504020112
40
0.03906444733869413
40
0.03906444733869413
40
0.047899228825634216
40
0.047899228825634216
40
0.047899228825634216
40
0.047899228825634216
10
-311.80074229057362
20
70.789787284411418
30
0
10
-311.82145402322851
20
70.764672191095002
30
0
10
-311.84687327663175
20
70.743842673707434
30
0
10
-311.90426527782984
20
70.713099652939832
30
0
10
-311.93568932681211
20
70.703480069594576
30
0
10
-312.00045599056341
20
70.696827671984138
30
0
10
-312.03317940072634
20
70.699858458265965
30
0
10
-312.09562257235774
20
70.718292813260121
30
0
10
-312.12474534307125
20
70.733520139491219
30
0
10
-312.17309401213839
20
70.772337345056542
30
0
10
-312.19262065908174
20
70.794687617669211
30
0
10
-312.20780785315139
20
70.819918724173348
30
0
0
SPLINE
5
139
100
AcDbEntity
8
0
100
AcDbSpline
70
0
71
2
72
6
73
3
74
0
42
0.000000001
43
0.0000000001
44
0.0000000001
40
0.24465753525891992
40
0.24465753525891992
40
0.24465753525891992
40
1
40
1
40
1
10
-311.80074229057362
20
70.789787284411418
30
0
10
-311.4064284716232
20
71.267933102721599
30
0
10
-310.73484678550591
20
71.818546659041317
30
0
0
SPLINE
5
140
100
AcDbEntity
8
0
100
AcDbSpline
70
0
71
2
72
6
73
3
74
0
42
0.000000001
43
0.0000000001
44
0.0000000001
40
0
40
0
40
0
40
0.87319225358557162
40
0.87319225358557162
40
0.87319225358557162
10
-310.73484678550591
20
71.818546659041317
30
0
10
-309.96330593697348
20
72.450245728777219
30
0
10
-309.32650578689379
20
72.766146286514669
30
0
0
SPLINE
5
141
100
AcDbEntity
8
0
100
AcDbSpline
70
0
71
3
72
14
73
10
74
0
42
0.000000001
43
0.0000000001
44
0.0000000001
40
0
40
0
40
0
40
0
40
0.0097661118346724848
40
0.0097661118346724848
40
0.019532223669345036
40
0.019532223669345036
40
0.026671088984833207
40
0.026671088984833207
40
0.033809954300319162
40
0.033809954300319162
40
0.033809954300319162
40
0.033809954300319162
10
-309.02137768847751
20
72.699837127127026
30
0
10
-309.04190581547351
20
72.725102514198994
30
0
10
-309.06717257430051
20
72.746116750719878
30
0
10
-309.12433897543633
20
72.777277265937357
30
0
10
-309.15569207579216
20
72.78712563312466
30
0
10
-309.21170363050027
20
72.793291641173539
30
0
10
-309.23560803072405
20
72.792505062123453
30
0
10
-309.28246999962352
20
72.784198692179146
30
0
10
-309.30518843872142
20
72.776721287441219
30
0
10
-309.32650578689379
20
72.766146286514669
30
0
0
LINE
5
142
100
AcDbEntity
8
0
100
AcDbLine
10
-309.02137768847751
20
72.699837127127026
30
0
11
-308.57126538043826
21
72.145852748001886
31
0
0
SPLINE
5
143
100
AcDbEntity
8
0
100
AcDbSpline
70
0
71
3
72
16
73
12
74
0
42
0.000000001
43
0.0000000001
44
0.0000000001
40
0
40
0
40
0
40
0
40
0.0097661118346770021
40
0.0097661118346770021
40
0.019532223669347589
40
0.019532223669347589
40
0.029298335504020799
40
0.029298335504020799
40
0.037882706379639329
40
0.037882706379639329
40
0.046467077255260246
40
0.046467077255260246
40
0.046467077255260246
40
0.046467077255260246
10
-308.66799030974698
20
71.757917781152713
30
0
10
-308.63800355313191
20
71.770588148533633
30
0
10
-308.61077829075066
20
71.788994460669741
30
0
10
-308.56491561122095
20
71.835206902217365
30
0
10
-308.54671666628587
20
71.862571215499969
30
0
10
-308.52183229415436
20
71.92273551680114
30
0
10
-308.51538477511849
20
71.954960301307167
30
0
10
-308.51521577731421
20
72.01612834355123
30
0
10
-308.52005004646958
20
72.044545123129936
30
0
10
-308.53912318604466
20
72.098502418438159
30
0
10
-308.55322124388755
20
72.123644579939352
30
0
10
-308.57126538043832
20
72.145852748001886
30
0
0
SPLINE
5
144
100
AcDbEntity
8
0
100
AcDbSpline
70
0
71
2
72
6
73
3
74
0
42
0.000000001
43
0.0000000001
44
0.0000000001
40
0.13187723623357614
40
0.13187723623357614
40
0.13187723623357614
40
1
40
1
40
1
10
-308.66799030974647
20
71.757917781152912
30
0
10
-309.68529318827757
20
71.328074654932436
30
0
10
-310.51947258691735
20
70.498689390767538
30
0
0
SPLINE
5
145
100
AcDbEntity
8
0
100
AcDbSpline
70
0
71
2
72
6
73
3
74
0
42
0.000000001
43
0.0000000001
44
0.0000000001
40
0
40
0
40
0
40
1
40
1
40
1
10
-310.51947258691735
20
70.498689390767538
30
0
10
-311.4803728575435
20
69.543311535489863
30
0
10
-311.67365739473831
20
68.565844018818481
30
0
0
LINE
5
146
100
AcDbEntity
8
0
100
AcDbLine
10
-311.67365739473831
20
68.565844018818481
30
0
11
-311.73596773797851
21
68.251460014288568
31
0
0
LWPOLYLINE
5
147
100
AcDbEntity
8
0
100
AcDbPolyline
90
8
70
1
43
0.0
10
-36.869249999999987
20
98.987499999999997
42
-0.41421356237314183
10
-36.369250000000008
20
99.487500000000011
10
-30.369250000000008
20
99.487500000000011
42
-0.41421356237308982
10
-29.869250000000001
20
98.987499999999997
10
-29.869249999999997
20
84.987499999999983
42
-0.41421356237304563
10
-30.369250000000008
20
84.487499999999955
10
-36.369250000000008
20
84.487500000000026
42
-0.41421356237305601
10
-36.869249999999994
20
84.987499999999983
0
LWPOLYLINE
5
148
100
AcDbEntity
8
0
100
AcDbPolyline
90
8
70
1
43
0.0
10
-54.125000000000021
20
2.5249999999999764
42
-0.41421356237310608
10
-54.624999999999979
20
3.0249999999999844
10
-54.625000000000028
20
16.024999999999991
42
-0.41421356237306511
10
-54.125000000000021
20
16.524999999999999
10
-41.125000000000014
20
16.524999999999984
42
-0.41421356237312756
10
-40.624999999999972
20
16.024999999999991
10
-40.624999999999972
20
3.0249999999999844
42
-0.41421356237307355
10
-41.125000000000014
20
2.5249999999999773
0
LWPOLYLINE
5
149
100
AcDbEntity
8
0
100
AcDbPolyline
90
8
70
1
43
0.0
10
-317.05095265830101
20
66.403221215907678
10
-315.62676602213548
20
73.524154396735341
42
0.47328481771502379
10
-315.87191119105825
20
73.82318343051989
10
-316.72052341541161
20
73.82318343051989
42
0.35751076502767837
10
-316.96566858433437
20
73.622212464304425
10
-318.38985522049995
20
66.501279283476777
42
0.47328481771503444
10
-318.14471005157719
20
66.202250249692227
10
-317.29609782722378
20
66.202250249692227
42
0.35751076502767837
0
LWPOLYLINE
5
150
100
AcDbEntity
8
0
100
AcDbPolyline
90
8
70
1
43
0.0
10
-112.56250000000001
20
78.437499999999986
42
-0.4142135623730846
10
-112.06250000000004
20
77.937499999999957
10
-112.06250000000003
20
64.937499999999986
42
-0.41421356237312623
10
-112.56250000000001
20
64.437499999999972
10
-125.56249999999999
20
64.4375
42
-0.41421356237314183
10
-126.06250000000006
20
64.937499999999986
10
-126.06250000000009
20
77.937499999999957
42
-0.41421356237312623
10
-125.56249999999999
20
78.437499999999972
0
CIRCLE
5
151
100
AcDbEntity
8
0
100
AcDbCircle
10
-288.13125000000008
20
21.43124999999997
30
0
40
2.3812500000000014
210
0
220
-0
230
1
0
LWPOLYLINE
5
152
100
AcDbEntity
8
0
100
AcDbPolyline
90
8
70
1
43
0.0
10
-31.600000000000009
20
59.387500000000003
10
-44.600000000000016
20
59.387500000000045
42
0.4142135623730378
10
-45.100000000000023
20
58.887500000000031
10
-45.100000000000023
20
45.887499999999974
42
0.41421356237304818
10
-44.600000000000016
20
45.387499999999989
10
-31.600000000000009
20
45.387499999999989
42
0.41421356237308204
10
-31.100000000000023
20
45.887499999999974
10
-31.100000000000001
20
58.887500000000031
42
0.41421356237304041
0
LWPOLYLINE
5
153
100
AcDbEntity
8
0
100
AcDbPolyline
90
8
70
1
43
0.0
10
-150.16249999999999
20
64.937499999999986
10
-150.16249999999999
20
77.937499999999957
42
0.41421356237306384
10
-150.66250000000002
20
78.437499999999986
10
-163.66250000000005
20
78.437499999999972
42
0.41421356237290252
10
-164.16249999999997
20
77.937499999999957
10
-164.16250000000005
20
64.937499999999986
42
0.41421356237308982
10
-163.66250000000008
20
64.437499999999957
10
-150.66250000000002
20
64.4375
42
0.41421356237310542
0
LWPOLYLINE
5
154
100
AcDbEntity
8
0
100
AcDbPolyline
90
8
70
1
43
0.0
10
-275.63800000000009
20
42.33749999999992
42
-0.4142135623732095
10
-275.13799999999998
20
41.837499999999963
10
-275.13799999999998
20
27.837499999999959
42
-0.41421356237303258
10
-275.63799999999992
20
27.33749999999997
10
-281.63800000000015
20
27.337499999999977
42
-0.41421356237305862
10
-282.13799999999998
20
27.837499999999959
10
-282.1380000000002
20
41.837499999999963
42
-0.41421356237314183
10
-281.63800000000009
20
42.33750000000002
0
LWPOLYLINE
5
155
100
AcDbEntity
8
0
100
AcDbPolyline
90
8
70
1
43
0.0
10
-23.812500000000007
20
45.937499999999986
10
-23.812500000000007
20
58.837500000000027
42
0.41421356237307611
10
-24.362500000000004
20
59.387499999999989
10
-28.025000000000002
20
59.387499999999982
42
0.41421356237310214
10
-28.575000000000045
20
58.837499999999991
10
-28.575000000000045
20
45.9375
42
0.41421356237313522
10
-28.025000000000002
20
45.387499999999989
10
-24.362500000000004
20
45.387499999999989
42
0.41421356237307849
0
LWPOLYLINE
5
156
100
AcDbEntity
8
0
100
AcDbPolyline
90
8
70
1
43
0.0
10
-312.08750000000009
20
45.887499999999974
42
-0.41421356237294416
10
-312.58749999999998
20
45.387499999999896
10
-325.58750000000003
20
45.387499999999946
42
-0.41421356237300139
10
-326.08749999999992
20
45.887499999999974
10
-326.08749999999986
20
58.887499999999982
42
-0.41421356237332396
10
-325.58750000000003
20
59.387499999999932
10
-312.58749999999998
20
59.387499999999932
42
-0.4142135623730846
10
-312.08750000000003
20
58.887499999999982
0
LWPOLYLINE
5
157
100
AcDbEntity
8
0
100
AcDbPolyline
90
8
70
1
43
0.0
10
-19.04999999999999
20
3.0749999999999744
42
-0.41421356237307527
10
-19.599999999999991
20
2.5249999999999773
10
-37.549999999999997
20
2.5249999999999795
42
-0.41421356237313173
10
-38.099999999999994
20
3.0749999999999744
10
-38.099999999999994
20
15.975000000000001
42
-0.41421356237308082
10
-37.549999999999997
20
16.525000000000016
10
-19.599999999999991
20
16.524999999999999
42
-0.41421356237310214
10
-19.050000000000004
20
15.97500000000001
0
LWPOLYLINE
5
158
100
AcDbEntity
8
0
100
AcDbPolyline
90
8
70
1
43
0.0
10
-344.63749999999993
20
45.387499999999896
42
-0.41421356237303258
10
-345.1375000000001
20
45.887499999999974
10
-345.13749999999993
20
58.887499999999982
42
-0.41421356237330836
10
-344.63749999999993
20
59.387499999999932
10
-331.63749999999999
20
59.38749999999991
42
-0.41421356237311063
10
-331.1375000000001
20
58.887499999999982
10
-331.1375000000001
20
45.887499999999974
42
-0.41421356237301699
10
-331.63749999999999
20
45.387499999999932
0
LWPOLYLINE
5
159
100
AcDbEntity
8
0
100
AcDbPolyline
90
8
70
1
43
0.0
10
-226.86249999999995
20
78.437499999999915
42
-0.41421356237308982
10
-226.36250000000013
20
77.937499999999957
10
-226.36249999999995
20
64.937499999999986
42
-0.41421356237317308
10
-226.86250000000001
20
64.437499999999943
10
-239.86249999999998
20
64.4375
42
-0.41421356237316265
10
-240.36249999999998
20
64.937499999999986
10
-240.36250000000001
20
77.937499999999957
42
-0.41421356237307944
10
-239.86249999999998
20
78.437499999999972
0
LWPOLYLINE
5
160
100
AcDbEntity
8
0
100
AcDbPolyline
90
8
70
1
43
0.0
10
-73.675000000000011
20
39.83749999999997
10
-73.675000000000011
20
26.837499999999981
42
0.41421356237314183
10
-73.175000000000011
20
26.337499999999984
10
-60.175000000000026
20
26.337499999999984
42
0.41421356237308204
10
-59.67500000000004
20
26.837499999999981
10
-59.675000000000018
20
39.83749999999997
42
0.41421356237310802
10
-60.175000000000026
20
40.337499999999977
10
-73.175000000000011
20
40.337500000000034
42
0.41421356237308204
0
LWPOLYLINE
5
161
100
AcDbEntity
8
0
100
AcDbPolyline
90
8
70
1
43
0.0
10
-245.12500000000003
20
39.837499999999935
10
-245.12500000000003
20
26.837499999999963
42
0.41421356237313928
10
-244.62500000000003
20
26.337499999999963
10
-231.625
20
26.337499999999956
42
0.4142135623729884
10
-231.12500000000006
20
26.837499999999963
10
-231.12500000000006
20
39.83749999999997
42
0.41421356237304818
10
-231.625
20
40.337499999999977
10
-244.62500000000003
20
40.337499999999963
42
0.41421356237308721
0
LWPOLYLINE
5
162
100
AcDbEntity
8
0
100
AcDbPolyline
90
8
70
1
43
0.0
10
-178.73750000000007
20
83.98749999999994
10
-178.73750000000004
20
96.987499999999969
42
0.41421356237330315
10
-179.23750000000007
20
97.487499999999983
10
-192.23750000000001
20
97.487500000000011
42
0.41421356237313667
10
-192.73750000000007
20
96.987499999999969
10
-192.73750000000013
20
83.98749999999994
42
0.41421356237312623
10
-192.23750000000001
20
83.487499999999969
10
-179.2375000000001
20
83.487500000000011
42
0.41421356237314705
0
LWPOLYLINE
5
163
100
AcDbEntity
8
0
100
AcDbPolyline
90
8
70
1
43
0.0
10
-20.787499999999987
20
45.387499999999989
10
-7.7875000000000227
20
45.387500000000003
42
0.41421356237305668
10
-7.2874999999999979
20
45.887499999999989
10
-7.2875000000000334
20
58.887500000000031
42
0.41421356237308593
10
-7.7875000000000227
20
59.387500000000045
10
-20.787499999999987
20
59.387499999999989
42
0.41421356237313667
10
-21.287500000000044
20
58.887500000000031
10
-21.287500000000001
20
45.887499999999974
42
0.41421356237310025
0
LWPOLYLINE
5
164
100
AcDbEntity
8
0
100
AcDbPolyline
90
8
70
1
43
0.0
10
-257.81875000000008
20
78.437499999999972
42
-0.41421356237313667
10
-257.31875000000008
20
77.937499999999957
10
-257.31875000000008
20
64.937499999999986
42
-0.41421356237310025
10
-257.81875000000002
20
64.437499999999972
10
-270.81875000000002
20
64.437499999999986
42
-0.41421356237294416
10
-271.31875000000008
20
64.937499999999986
10
-271.31875000000008
20
77.937499999999957
42
-0.41421356237306384
10
-270.81875000000002
20
78.437499999999929
0
LWPOLYLINE
5
165
100
AcDbEntity
8
0
100
AcDbPolyline
90
8
70
1
43
0.0
10
-130.82500000000005
20
113.46249999999998
42
-0.41421356237301937
10
-130.27500000000006
20
114.01249999999993
10
-94.825000000000017
20
114.01249999999997
42
-0.41421356237315182
10
-94.27500000000002
20
113.46249999999998
10
-94.274999999999977
20
103.08750000000003
42
-0.41421356237312346
10
-94.825000000000017
20
102.53750000000002
10
-130.27500000000006
20
102.53750000000002
42
-0.41421356237309503
10
-130.82500000000002
20
103.08750000000003
0
LWPOLYLINE
5
166
100
AcDbEntity
8
0
100
AcDbPolyline
90
8
70
1
43
0.0
10
-28.431249999999999
20
96.987500000000011
10
-28.431249999999999
20
83.987499999999983
42
0.414213562373069
10
-27.931249999999999
20
83.487499999999969
10
-14.93125
20
83.487499999999969
42
0.41421356237305729
10
-14.431249999999993
20
83.987499999999983
10
-14.431250000000002
20
96.987500000000011
42
0.41421356237312756
10
-14.93125
20
97.487500000000011
10
-27.931249999999999
20
97.487500000000011
42
0.41421356237309243
0
CIRCLE
5
167
100
AcDbEntity
8
0
100
AcDbCircle
10
-9.5249999999999968
20
21.431249999999995
30
0
40
2.3812500000000014
210
0
220
-0
230
1
0
LWPOLYLINE
5
168
100
AcDbEntity
8
0
100
AcDbPolyline
90
8
70
1
43
0.0
10
-293.03750000000008
20
103.03749999999999
10
-293.03750000000008
20
116.03749999999994
42
0.41421356237304302
10
-293.53750000000014
20
116.53749999999999
10
-306.53750000000008
20
116.53750000000002
42
0.41421356237299095
10
-307.03750000000014
20
116.03749999999994
10
-307.03750000000008
20
103.03749999999999
42
0.41421356237327195
10
-306.53750000000008
20
102.53749999999997
10
-293.53750000000008
20
102.53749999999997
42
0.41421356237298057
0
LWPOLYLINE
5
169
100
AcDbEntity
8
0
100
AcDbPolyline
90
8
70
1
43
0.0
10
-272.75675000000001
20
62.937499999999972
10
-272.75675000000007
20
76.937499999999957
42
0.41421356237307944
10
-273.25674999999995
20
77.437499999999972
10
-279.25675000000001
20
77.437499999999929
42
0.41421356237290774
10
-279.75675000000001
20
76.937499999999957
10
-279.75674999999995
20
62.937499999999972
42
0.41421356237325113
10
-279.25675000000001
20
62.437500000000043
10
-273.25675000000018
20
62.437499999999986
42
0.41421356237301177
0
LWPOLYLINE
5
170
100
AcDbEntity
8
0
100
AcDbPolyline
90
8
70
1
43
0.0
10
-207.81250000000003
20
78.437499999999972
10
-220.81250000000006
20
78.437499999999986
42
0.41421356237312101
10
-221.3125
20
77.937499999999957
10
-221.3125
20
64.937499999999986
42
0.41421356237307944
10
-220.81249999999997
20
64.437499999999972
10
-207.81250000000003
20
64.437499999999972
42
0.41421356237313145
10
-207.31250000000011
20
64.937499999999986
10
-207.31250000000003
20
77.937499999999957
42
0.41421356237314705
0
LWPOLYLINE
5
171
100
AcDbEntity
8
0
100
AcDbPolyline
90
8
70
1
43
0.0
10
-345.1375000000001
20
116.03749999999994
42
-0.41421356237323032
10
-344.6375000000001
20
116.53749999999999
10
-331.63750000000005
20
116.53750000000002
42
-0.41421356237303258
10
-331.1375000000001
20
116.03749999999994
10
-331.13749999999987
20
103.03749999999999
42
-0.41421356237326151
10
-331.63749999999999
20
102.53750000000002
10
-344.63749999999993
20
102.53749999999994
42
-0.4142135623730222
10
-345.1375000000001
20
103.03749999999999
0
LWPOLYLINE
5
172
100
AcDbEntity
8
0
100
AcDbPolyline
90
8
70
1
43
0.0
10
-107.80000000000001
20
59.387500000000045
10
-120.80000000000001
20
59.387500000000045
42
0.41421356237310025
10
-121.30000000000003
20
58.887500000000031
10
-121.29999999999998
20
45.887499999999974
42
0.41421356237310025
10
-120.80000000000001
20
45.387500000000003
10
-107.80000000000001
20
45.387499999999989
42
0.41421356237315227
10
-107.30000000000001
20
45.887499999999974
10
-107.30000000000001
20
58.887500000000031
42
0.4142135623730846
0
LWPOLYLINE
5
173
100
AcDbEntity
8
0
100
AcDbPolyline
90
8
70
1
43
0.0
10
-274.99425000000002
20
98.987499999999983
42
-0.41421356237325113
10
-274.49425000000008
20
99.487499999999955
10
-268.49425000000002
20
99.487500000000026
42
-0.41421356237292856
10
-267.99425000000008
20
98.987499999999983
10
-267.99425000000008
20
84.987499999999983
42
-0.41421356237310542
10
-268.49425000000002
20
84.487499999999955
10
-274.49425000000008
20
84.487500000000011
42
-0.41421356237297013
10
-274.99425000000002
20
84.987499999999983
0
LWPOLYLINE
5
174
100
AcDbEntity
8
0
100
AcDbPolyline
90
8
70
1
43
0.0
10
-312.08750000000015
20
103.03749999999999
10
-312.08750000000003
20
116.03749999999998
42
0.41421356237295975
10
-312.58749999999998
20
116.53749999999995
10
-325.58750000000003
20
116.53749999999999
42
0.41421356237315748
10
-326.08749999999998
20
116.03749999999994
10
-326.08749999999998
20
103.03749999999999
42
0.41421356237306384
10
-325.58749999999998
20
102.53749999999997
10
-312.58749999999998
20
102.53749999999997
42
0.4142135623730222
0
LWPOLYLINE
5
175
100
AcDbEntity
8
0
100
AcDbPolyline
90
8
70
1
43
0.0
10
-6.493250000000037
20
99.48750000000004
42
-0.41421356237310025
10
-5.9932499999999944
20
98.987499999999997
10
-5.9932499999999989
20
84.987500000000011
42
-0.41421356237309243
10
-6.4932500000000015
20
84.487500000000011
10
-12.49324999999998
20
84.48750000000004
42
-0.41421356237310281
10
-12.993250000000032
20
84.987499999999983
10
-12.993250000000033
20
98.987499999999997
42
-0.41421356237309631
10
-12.493250000000025
20
99.487500000000011
0
LWPOLYLINE
5
176
100
AcDbEntity
8
0
100
AcDbPolyline
90
8
70
1
43
0.0
10
-252.55625000000009
20
83.98749999999994
42
-0.41421356237313667
10
-253.05625000000015
20
83.487499999999969
10
-266.05625000000003
20
83.487499999999969
42
-0.41421356237326151
10
-266.55625000000009
20
83.98749999999994
10
-266.55624999999998
20
96.987499999999969
42
-0.41421356237314705
10
-266.05624999999998
20
97.487499999999983
10
-253.05625000000015
20
97.487499999999983
42
-0.41421356237313667
10
-252.55625000000012
20
96.987499999999969
0
CIRCLE
5
177
100
AcDbEntity
8
0
100
AcDbCircle
10
-338.13750000000005
20
21.431249999999949
30
0
40
2.3812500000000369
210
0
220
-0
230
1
0
LWPOLYLINE
5
178
100
AcDbEntity
8
0
100
AcDbPolyline
90
8
70
1
43
0.0
10
-345.13749999999993
20
39.837499999999935
10
-345.13749999999993
20
26.837499999999956
42
0.41421356237282447
10
-344.63749999999993
20
26.337499999999913
10
-331.63749999999999
20
26.337499999999956
42
0.41421356237338119
10
-331.1375000000001
20
26.837499999999956
10
-331.1375000000001
20
39.83749999999997
42
0.41421356237301959
10
-331.63749999999999
20
40.337499999999906
10
-344.63749999999993
20
40.337499999999963
42
0.41421356237334739
0
CIRCLE
5
179
100
AcDbEntity
8
0
100
AcDbCircle
10
-204.78750000000005
20
21.43124999999997
30
0
40
2.3812500000000014
210
0
220
-0
230
1
0
LWPOLYLINE
5
180
100
AcDbEntity
8
0
100
AcDbPolyline
90
8
70
1
43
0.0
10
-212.07500000000005
20
3.0249999999999488
42
-0.41421356237304235
10
-212.57499999999999
20
2.5249999999999417
10
-225.57500000000002
20
2.5249999999999622
42
-0.41421356237316626
10
-226.07500000000002
20
3.0249999999999488
10
-226.07500000000002
20
16.024999999999956
42
-0.41421356237314705
10
-225.57500000000002
20
16.524999999999963
10
-212.57499999999999
20
16.524999999999988
42
-0.41421356237304169
10
-212.07500000000005
20
16.024999999999963
0
LWPOLYLINE
5
181
100
AcDbEntity
8
0
100
AcDbPolyline
90
8
70
1
43
0.0
10
-83.987499999999997
20
97.487500000000011
10
-96.987500000000011
20
97.487500000000011
42
0.41421356237309503
10
-97.487500000000011
20
96.987500000000011
10
-97.487500000000011
20
83.987499999999983
42
0.41421356237313667
10
-96.987500000000011
20
83.487499999999969
10
-83.987499999999997
20
83.487499999999969
42
0.41421356237307422
10
-83.487499999999983
20
83.987499999999983
10
-83.487500000000068
20
96.987500000000011
42
0.41421356237316787
0
LWPOLYLINE
5
182
100
AcDbEntity
8
0
100
AcDbPolyline
90
8
70
1
43
0.0
10
-212.07500000000005
20
19.59999999999993
42
-0.41421356237315654
10
-212.62500000000003
20
19.049999999999969
10
-282.67500000000007
20
19.049999999999969
42
-0.41421356237331264
10
-283.22500000000002
20
19.59999999999998
10
-283.22500000000002
20
23.262499999999964
42
-0.41421356237308321
10
-282.67500000000001
20
23.812499999999979
10
-212.62500000000003
20
23.812499999999982
42
-0.41421356237299339
10
-212.07500000000005
20
23.262499999999964
0
LWPOLYLINE
5
183
100
AcDbEntity
8
0
100
AcDbPolyline
90
8
70
1
43
0.0
10
-73.174999999999997
20
2.5249999999999591
42
-0.41421356237311618
10
-73.674999999999983
20
3.0249999999999844
10
-73.674999999999997
20
16.024999999999956
42
-0.41421356237305601
10
-73.175000000000011
20
16.524999999999963
10
-60.17500000000004
20
16.524999999999959
42
-0.41421356237311846
10
-59.675000000000004
20
16.024999999999963
10
-59.675000000000004
20
3.0249999999999844
42
-0.41421356237308432
10
-60.17499999999999
20
2.5249999999999773
0
LWPOLYLINE
5
184
100
AcDbEntity
8
0
100
AcDbPolyline
90
8
70
1
43
0.0
10
-261.9375
20
58.837499999999991
42
-0.41421356237308082
10
-261.38749999999999
20
59.387500000000003
10
-257.72500000000002
20
59.387499999999953
42
-0.41421356237315182
10
-257.17500000000007
20
58.837499999999991
10
-257.17500000000007
20
45.937499999999986
42
-0.41421356237310453
10
-257.72500000000002
20
45.387499999999989
10
-261.38750000000005
20
45.387499999999946
42
-0.41421356237311396
10
-261.9375
20
45.937499999999986
0
LWPOLYLINE
5
185
100
AcDbEntity
8
0
100
AcDbPolyline
90
8
70
1
43
0.0
10
-114.84999999999999
20
16.524999999999963
10
-123.27500000000001
20
16.524999999999981
42
0.41421356237308082
10
-123.82500000000005
20
15.974999999999966
10
-123.82500000000005
20
3.0749999999999744
42
0.41421356237311696
10
-123.27500000000001
20
2.5249999999999773
10
-114.84999999999999
20
2.524999999999995
42
0.41421356237303325
10
-114.30000000000007
20
3.0749999999999744
10
-114.30000000000001
20
15.974999999999966
42
0.41421356237311752
0
LWPOLYLINE
5
186
100
AcDbEntity
8
0
100
AcDbPolyline
90
8
70
1
43
0.0
10
-216.04999999999995
20
45.387499999999974
42
-0.41421356237300661
10
-216.54999999999998
20
45.887499999999974
10
-216.54999999999995
20
58.887499999999982
42
-0.4142135623730378
10
-216.04999999999995
20
59.387499999999989
10
-203.05000000000007
20
59.387499999999974
42
-0.41421356237327195
10
-202.55000000000001
20
58.887499999999982
10
-202.55000000000001
20
45.887499999999974
42
-0.41421356237312623
10
-203.0500000000001
20
45.387499999999989
0
LWPOLYLINE
5
187
100
AcDbEntity
8
0
100
AcDbPolyline
90
8
70
1
43
0.0
10
-312.08750000000003
20
26.837499999999956
42
-0.41421356237289991
10
-312.58749999999998
20
26.337499999999885
10
-325.58750000000003
20
26.337499999999974
42
-0.41421356237305862
10
-326.08749999999992
20
26.837499999999956
10
-326.08749999999986
20
39.837499999999935
42
-0.41421356237333173
10
-325.58750000000003
20
40.337499999999906
10
-312.58749999999998
20
40.337500000000013
42
-0.41421356237303258
10
-312.08750000000003
20
39.837499999999935
0
LWPOLYLINE
5
188
100
AcDbEntity
8
0
100
AcDbPolyline
90
8
70
1
43
0.0
10
-7.2875000000000023
20
103.03750000000001
42
-0.41421356237311324
10
-7.7875000000000227
20
102.53750000000002
10
-20.787499999999987
20
102.53750000000002
42
-0.41421356237313928
10
-21.287500000000044
20
103.03750000000001
10
-21.287500000000044
20
116.03749999999998
42
-0.41421356237304302
10
-20.787499999999987
20
116.53750000000002
10
-7.7875000000000227
20
116.53750000000002
42
-0.4142135623730534
10
-7.2874999999999801
20
116.03749999999998
0
LWPOLYLINE
5
189
100
AcDbEntity
8
0
100
AcDbPolyline
90
8
70
1
43
0.0
10
-230.83750000000015
20
96.987499999999969
10
-230.83750000000012
20
83.98749999999994
42
0.41421356237318868
10
-230.33750000000003
20
83.487499999999969
10
-217.33750000000009
20
83.487499999999969
42
0.41421356237300139
10
-216.83750000000006
20
83.98749999999994
10
-216.83750000000006
20
96.987499999999969
42
0.41421356237311585
10
-217.33750000000009
20
97.487500000000011
10
-230.33750000000001
20
97.487500000000011
42
0.41421356237312623
0
LWPOLYLINE
5
190
100
AcDbEntity
8
0
100
AcDbPolyline
90
8
70
1
43
0.0
10
-168.42500000000001
20
26.33749999999997
42
-0.41421356237312884
10
-168.92500000000001
20
26.837499999999963
10
-168.92500000000001
20
39.83749999999997
42
-0.41421356237316265
10
-168.42500000000001
20
40.337499999999963
10
-155.42500000000001
20
40.337500000000048
42
-0.4142135623730534
10
-154.92500000000001
20
39.83749999999997
10
-154.9250000000001
20
26.837499999999981
42
-0.41421356237305601
10
-155.42500000000001
20
26.337499999999991
0
LWPOLYLINE
5
191
100
AcDbEntity
8
0
100
AcDbPolyline
90
8
70
1
43
0.0
10
-83.200000000000045
20
58.887500000000031
10
-83.200000000000045
20
45.887499999999974
42
0.41421356237315227
10
-82.700000000000031
20
45.387499999999989
10
-69.700000000000031
20
45.387499999999989
42
0.4142135623730846
10
-69.200000000000045
20
45.887499999999974
10
-69.200000000000031
20
58.887500000000031
42
0.41421356237310025
10
-69.700000000000031
20
59.387500000000003
10
-82.700000000000031
20
59.387499999999989
42
0.41421356237309503
0
LWPOLYLINE
5
192
100
AcDbEntity
8
0
100
AcDbPolyline
90
8
70
1
43
0.0
10
-202.26249999999999
20
77.937499999999957
42
-0.41421356237300139
10
-201.76250000000005
20
78.437499999999972
10
-188.76250000000005
20
78.437499999999972
42
-0.41421356237307944
10
-188.26250000000002
20
77.937499999999957
10
-188.26250000000002
20
64.937499999999986
42
-0.41421356237286611
10
-188.76250000000005
20
64.437499999999972
10
-201.76250000000005
20
64.4375
42
-0.41421356237316265
10
-202.26250000000005
20
64.937499999999986
0
LWPOLYLINE
5
193
100
AcDbEntity
8
0
100
AcDbPolyline
90
8
70
1
43
0.0
10
-49.862500000000047
20
77.937499999999957
42
-0.41421356237311585
10
-49.362500000000054
20
78.437499999999972
10
-36.362500000000047
20
78.437499999999972
42
-0.41421356237314444
10
-35.86250000000004
20
77.937499999999957
10
-35.862500000000011
20
64.937499999999986
42
-0.41421356237312362
10
-36.362500000000047
20
64.4375
10
-49.362500000000054
20
64.4375
42
-0.4142135623730534
10
-49.862500000000047
20
64.937499999999986
0
LWPOLYLINE
5
194
100
AcDbEntity
8
0
100
AcDbPolyline
90
8
70
1
43
0.0
10
-159.6875
20
83.98749999999994
42
-0.41421356237314705
10
-160.18750000000006
20
83.487500000000026
10
-173.18750000000006
20
83.487499999999969
42
-0.41421356237309503
10
-173.68750000000009
20
83.98749999999994
10
-173.68750000000006
20
96.987499999999969
42
-0.41421356237307422
10
-173.18750000000009
20
97.487499999999997
10
-160.18750000000006
20
97.487500000000011
42
-0.41421356237310542
10
-159.68750000000009
20
96.987499999999969
0
LWPOLYLINE
5
195
100
AcDbEntity
8
0
100
AcDbPolyline
90
8
70
1
43
0.0
10
-16.524999999999995
20
39.83749999999997
42
-0.41421356237315093
10
-16.024999999999999
20
40.337499999999963
10
-3.0249999999999844
20
40.33750000000002
42
-0.41421356237306511
10
-2.524999999999995
20
39.83750000000002
10
-2.5249999999999955
20
26.837499999999999
42
-0.41421356237309992
10
-3.025000000000011
20
26.337499999999991
10
-16.024999999999999
20
26.337499999999984
42
-0.41421356237310025
10
-16.524999999999999
20
26.837499999999981
0
LWPOLYLINE
5
196
100
AcDbEntity
8
0
100
AcDbPolyline
90
8
70
1
43
0.0
10
-97.775000000000034
20
26.837499999999981
10
-97.775000000000034
20
39.83749999999997
42
0.414213562373069
10
-98.275000000000006
20
40.337499999999977
10
-111.27500000000001
20
40.337499999999963
42
0.41421356237313145
10
-111.77500000000002
20
39.83749999999997
10
-111.77500000000002
20
26.837499999999981
42
0.41421356237310025
10
-111.27500000000001
20
26.337499999999963
10
-98.275000000000006
20
26.337499999999991
42
0.41421356237316009
0
LWPOLYLINE
5
197
100
AcDbEntity
8
0
100
AcDbPolyline
90
8
70
1
43
0.0
10
-22.075000000000038
20
40.337499999999963
42
-0.41421356237311585
10
-21.575000000000042
20
39.83749999999997
10
-21.575000000000042
20
26.837499999999981
42
-0.41421356237309503
10
-22.075000000000038
20
26.337499999999984
10
-35.074999999999996
20
26.337499999999984
42
-0.41421356237309503
10
-35.575000000000038
20
26.837499999999981
10
-35.575000000000017
20
39.83749999999997
42
-0.41421356237313145
10
-35.074999999999996
20
40.337499999999963
0
LWPOLYLINE
5
198
100
AcDbEntity
8
0
100
AcDbPolyline
90
8
70
1
43
0.0
10
-331.1375000000001
20
3.0249999999999488
42
-0.414213562373069
10
-331.63749999999999
20
2.5249999999999417
10
-344.63749999999993
20
2.524999999999975
42
-0.41421356237292983
10
-345.13750000000016
20
3.0249999999999488
10
-345.13749999999993
20
16.024999999999956
42
-0.41421356237330964
10
-344.63749999999993
20
16.524999999999935
10
-331.63749999999999
20
16.524999999999906
42
-0.41421356237311974
10
-331.1375000000001
20
16.024999999999963
0
LWPOLYLINE
5
199
100
AcDbEntity
8
0
100
AcDbPolyline
90
8
70
1
43
0.0
10
-131.61249999999995
20
78.437499999999943
10
-144.61250000000001
20
78.437499999999972
42
0.4142135623730222
10
-145.11249999999995
20
77.937499999999957
10
-145.11250000000001
20
64.937499999999986
42
0.41421356237314183
10
-144.61250000000001
20
64.437499999999972
10
-131.61249999999998
20
64.437499999999972
42
0.41421356237312623
10
-131.11249999999998
20
64.937499999999986
10
-131.11250000000001
20
77.937499999999957
42
0.4142135623730846
0
LWPOLYLINE
5
200
100
AcDbEntity
8
0
100
AcDbPolyline
90
8
70
1
43
0.0
10
-159.39999999999998
20
58.887499999999982
10
-159.40000000000001
20
45.887499999999974
42
0.414213562373069
10
-158.90000000000001
20
45.387499999999967
10
-145.90000000000003
20
45.387500000000003
42
0.4142135623730378
10
-145.40000000000003
20
45.887499999999974
10
-145.39999999999998
20
58.887500000000031
42
0.41421356237302737
10
-145.90000000000003
20
59.387500000000045
10
-158.90000000000001
20
59.387499999999989
42
0.4142135623730222
0
LWPOLYLINE
5
201
100
AcDbEntity
8
0
100
AcDbPolyline
90
8
70
1
43
0.0
10
-293.53750000000014
20
59.387499999999989
42
-0.41421356237307422
10
-293.03750000000008
20
58.887499999999982
10
-293.03750000000002
20
45.887499999999974
42
-0.41421356237304818
10
-293.53750000000019
20
45.387499999999989
10
-306.53750000000008
20
45.387499999999974
42
-0.41421356237294416
10
-307.03750000000014
20
45.887499999999974
10
-307.03750000000008
20
58.887499999999982
42
-0.41421356237298579
10
-306.53750000000008
20
59.387500000000045
0
LWPOLYLINE
5
202
100
AcDbEntity
8
0
100
AcDbPolyline
90
8
70
1
43
0.0
10
-149.875
20
39.83749999999997
10
-149.87499999999997
20
26.837499999999981
42
0.41421356237304818
10
-149.375
20
26.337499999999984
10
-136.375
20
26.337499999999963
42
0.41421356237311063
10
-135.875
20
26.837499999999981
10
-135.875
20
39.83749999999997
42
0.41421356237307422
10
-136.375
20
40.337500000000034
10
-149.375
20
40.337499999999963
42
0.41421356237315227
0
LWPOLYLINE
5
203
100
AcDbEntity
8
0
100
AcDbPolyline
90
8
70
1
43
0.0
10
-145.39999999999995
20
3.0249999999999844
42
-0.41421356237302509
10
-145.90000000000001
20
2.5249999999999773
10
-158.90000000000001
20
2.5249999999999995
42
-0.41421356237314444
10
-159.40000000000001
20
3.0249999999999844
10
-159.40000000000003
20
16.024999999999991
42
-0.41421356237307683
10
-158.90000000000001
20
16.524999999999999
10
-145.90000000000003
20
16.524999999999967
42
-0.41421356237309764
10
-145.39999999999998
20
16.024999999999991
0
LWPOLYLINE
5
204
100
AcDbEntity
8
0
100
AcDbPolyline
90
8
70
1
43
0.0
10
-23.168750000000038
20
64.437499999999972
10
-5.4062500000000213
20
64.437500000000028
42
0.41421356237309115
10
-4.9062499999999876
20
64.937499999999986
10
-4.9062499999999964
20
77.937500000000028
42
0.41421356237305929
10
-5.4062499999999858
20
78.437499999999972
10
-23.168750000000038
20
78.437499999999972
42
0.41421356237307422
10
-23.668749999999996
20
77.937499999999957
10
-23.668749999999996
20
64.937499999999986
42
0.41421356237309503
0
LWPOLYLINE
5
205
100
AcDbEntity
8
0
100
AcDbPolyline
90
8
70
1
43
0.0
10
-121.58750000000012
20
83.987499999999983
10
-121.58750000000005
20
96.987500000000011
42
0.41421356237307422
10
-122.08750000000002
20
97.487500000000026
10
-135.08749999999998
20
97.487500000000011
42
0.41421356237311585
10
-135.58750000000009
20
96.987500000000011
10
-135.58750000000003
20
83.987499999999983
42
0.41421356237301177
10
-135.08749999999998
20
83.487499999999969
10
-122.08750000000002
20
83.487500000000011
42
0.41421356237312623
0
LWPOLYLINE
5
206
100
AcDbEntity
8
0
100
AcDbPolyline
90
8
70
1
43
0.0
10
-326.08749999999998
20
96.987499999999955
10
-326.08749999999998
20
83.98749999999994
42
0.41421356237314705
10
-325.58750000000003
20
83.487499999999926
10
-312.58749999999998
20
83.487499999999955
42
0.41421356237310542
10
-312.08750000000003
20
83.98749999999994
10
-312.08750000000003
20
96.987499999999955
42
0.41421356237303258
10
-312.58749999999998
20
97.487500000000011
10
-325.58750000000003
20
97.48749999999994
42
0.4142135623732095
0
LWPOLYLINE
5
207
100
AcDbEntity
8
0
100
AcDbPolyline
90
8
70
1
43
0.0
10
-101.75
20
45.387499999999989
10
-88.750000000000028
20
45.387499999999989
42
0.4142135623730222
10
-88.250000000000028
20
45.887499999999974
10
-88.250000000000028
20
58.887500000000031
42
0.4142135623730222
10
-88.750000000000028
20
59.387500000000003
10
-101.75
20
59.387499999999989
42
0.41421356237312623
10
-102.24999999999997
20
58.887500000000031
10
-102.25000000000001
20
45.887499999999974
42
0.4142135623730846
0
LWPOLYLINE
5
208
100
AcDbEntity
8
0
100
AcDbPolyline
90
8
70
1
43
0.0
10
-32.787499999999994
20
64.4375
10
-26.743750000000006
20
64.437500000000014
42
0.4142135623730856
10
-26.193750000000044
20
64.987499999999997
10
-26.193750000000051
20
77.887500000000003
42
0.41421356237307849
10
-26.743750000000006
20
78.437499999999972
10
-32.787499999999994
20
78.437499999999986
42
0.41421356237305251
10
-33.337499999999991
20
77.887499999999989
10
-33.337499999999991
20
64.987499999999997
42
0.41421356237307849
0
LWPOLYLINE
5
209
100
AcDbEntity
8
0
100
AcDbPolyline
90
8
70
1
43
0.0
10
-164.44999999999999
20
3.0249999999999844
42
-0.41421356237307355
10
-164.95000000000005
20
2.5249999999999773
10
-177.95000000000002
20
2.5249999999999706
42
-0.4142135623730781
10
-178.45000000000005
20
3.0249999999999844
10
-178.45000000000005
20
16.024999999999991
42
-0.41421356237307683
10
-177.95000000000002
20
16.524999999999999
10
-164.95000000000005
20
16.524999999999942
42
-0.41421356237318607
10
-164.45000000000005
20
16.024999999999991
0
LWPOLYLINE
5
210
100
AcDbEntity
8
0
100
AcDbPolyline
90
8
70
1
43
0.0
10
-73.962500000000034
20
64.937499999999986
42
-0.41421356237316787
10
-74.462500000000034
20
64.4375
10
-87.462500000000034
20
64.437499999999986
42
-0.414213562373069
10
-87.962500000000006
20
64.937499999999986
10
-87.962499999999977
20
77.937499999999957
42
-0.41421356237311063
10
-87.462500000000034
20
78.437499999999972
10
-74.462500000000034
20
78.437499999999972
42
-0.41421356237307422
10
-73.962500000000034
20
77.937499999999957
0
LWPOLYLINE
5
211
100
AcDbEntity
8
0
100
AcDbPolyline
90
8
70
1
43
0.0
10
-54.62500000000005
20
39.83749999999997
10
-54.625000000000028
20
26.837499999999981
42
0.41421356237309503
10
-54.125000000000021
20
26.337499999999974
10
-41.125000000000014
20
26.337499999999991
42
0.41421356237308721
10
-40.625000000000007
20
26.837499999999981
10
-40.624999999999972
20
39.83749999999997
42
0.41421356237309764
10
-41.125000000000014
20
40.337499999999977
10
-54.125000000000021
20
40.337500000000034
42
0.41421356237310281
0
LWPOLYLINE
5
212
100
AcDbEntity
8
0
100
AcDbPolyline
90
8
70
1
43
0.0
10
-211.78750000000005
20
96.987499999999969
42
-0.41421356237313667
10
-211.28750000000002
20
97.487499999999983
10
-198.28750000000008
20
97.487500000000011
42
-0.4142135623731783
10
-197.78750000000008
20
96.987499999999969
10
-197.78750000000008
20
83.98749999999994
42
-0.41421356237310542
10
-198.28750000000008
20
83.487499999999955
10
-211.28750000000002
20
83.487499999999983
42
-0.41421356237314705
10
-211.78750000000005
20
83.98749999999994
0
LWPOLYLINE
5
213
100
AcDbEntity
8
0
100
AcDbPolyline
90
8
70
1
43
0.0
10
-289.96250000000009
20
5.0499999999999856
42
-0.41421356237313522
10
-290.51250000000005
20
5.5999999999999162
10
-290.5125000000001
20
15.974999999999966
42
-0.41421356237312695
10
-289.96250000000009
20
16.524999999999963
10
-286.29999999999995
20
16.52499999999997
42
-0.41421356237300516
10
-285.75
20
15.974999999999966
10
-285.75000000000017
20
5.5999999999999517
42
-0.41421356237308854
10
-286.30000000000024
20
5.0500000000000256
0
LWPOLYLINE
5
214
100
AcDbEntity
8
0
100
AcDbPolyline
90
8
70
1
43
0.0
10
-141.13749999999999
20
97.487499999999997
42
-0.41421356237312623
10
-140.63750000000002
20
96.987500000000011
10
-140.63750000000002
20
83.987499999999983
42
-0.41421356237312623
10
-141.13749999999999
20
83.487500000000026
10
-154.13749999999999
20
83.487500000000026
42
-0.41421356237310542
10
-154.63750000000005
20
83.987499999999983
10
-154.63750000000007
20
96.987500000000011
42
-0.41421356237307422
10
-154.13750000000005
20
97.487500000000011
0
LWPOLYLINE
5
215
100
AcDbEntity
8
0
100
AcDbPolyline
90
8
70
1
43
0.0
10
-258.26200000000006
20
41.837499999999963
10
-258.26200000000006
20
27.837499999999959
42
0.41421356237313406
10
-257.76200000000006
20
27.337499999999952
10
-251.762
20
27.337499999999952
42
0.4142135623729884
10
-251.26200000000006
20
27.837499999999959
10
-251.26200000000006
20
41.837499999999963
42
0.41421356237301699
10
-251.762
20
42.337499999999991
10
-257.76200000000006
20
42.337499999999935
42
0.41421356237293894
0
LWPOLYLINE
5
216
100
AcDbEntity
8
0
100
AcDbPolyline
90
8
70
1
43
0.0
10
-307.03750000000014
20
16.024999999999956
10
-307.03750000000014
20
3.0249999999999488
42
0.41421356237329826
10
-306.53750000000008
20
2.5249999999999773
10
-293.53750000000014
20
2.5249999999999773
42
0.41421356237293633
10
-293.03750000000008
20
3.0249999999999488
10
-293.03750000000008
20
16.024999999999963
42
0.41421356237314966
10
-293.53750000000019
20
16.524999999999963
10
-306.53750000000008
20
16.525000000000016
42
0.41421356237289864
0
LWPOLYLINE
5
217
100
AcDbEntity
8
0
100
AcDbPolyline
90
8
70
1
43
0.0
10
-16.024999999999999
20
2.5249999999999773
10
-3.025000000000011
20
2.5249999999999773
42
0.41421356237309959
10
-2.524999999999995
20
3.0249999999999844
10
-2.524999999999995
20
16.024999999999991
42
0.4142135623730866
10
-3.0249999999999844
20
16.524999999999999
10
-16.024999999999999
20
16.524999999999999
42
0.41421356237313273
10
-16.524999999999999
20
16.024999999999991
10
-16.524999999999999
20
3.0249999999999844
42
0.41421356237308982
0
LWPOLYLINE
5
218
100
AcDbEntity
8
0
100
AcDbPolyline
90
8
70
1
43
0.0
10
-116.82500000000007
20
26.837499999999981
10
-116.82500000000007
20
39.83749999999997
42
0.41421356237307161
10
-117.32500000000002
20
40.337499999999977
10
-130.32500000000002
20
40.337499999999963
42
0.41421356237313145
10
-130.82499999999999
20
39.83749999999997
10
-130.82500000000005
20
26.837499999999981
42
0.41421356237310025
10
-130.32500000000002
20
26.337499999999963
10
-117.32500000000002
20
26.337499999999991
42
0.41421356237314705
0
LWPOLYLINE
5
219
100
AcDbEntity
8
0
100
AcDbPolyline
90
8
70
1
43
0.0
10
-200.02500000000003
20
3.0749999999999744
42
-0.41421356237313589
10
-200.57500000000005
20
2.5249999999999773
10
-209.00000000000003
20
2.5249999999999595
42
-0.41421356237319906
10
-209.54999999999998
20
3.0749999999999744
10
-209.54999999999998
20
15.974999999999966
42
-0.41421356237310802
10
-209.00000000000003
20
16.524999999999956
10
-200.57500000000005
20
16.524999999999974
42
-0.41421356237313878
10
-200.02500000000003
20
15.974999999999966
0
LWPOLYLINE
5
220
100
AcDbEntity
8
0
100
AcDbPolyline
90
8
70
1
43
0.0
10
-139.84999999999999
20
45.387499999999989
10
-126.85000000000005
20
45.387500000000003
42
0.41421356237316265
10
-126.35000000000005
20
45.887499999999974
10
-126.34999999999998
20
58.887500000000031
42
0.41421356237305862
10
-126.85000000000005
20
59.387500000000045
10
-139.84999999999999
20
59.387499999999989
42
0.41421356237309503
10
-140.35000000000002
20
58.887500000000031
10
-140.35000000000002
20
45.887499999999974
42
0.41421356237310542
0
LWPOLYLINE
5
221
100
AcDbEntity
8
0
100
AcDbPolyline
90
8
70
1
43
0.0
10
-187.97499999999999
20
39.83749999999997
42
-0.41421356237317308
10
-187.47499999999999
20
40.337499999999963
10
-174.47500000000005
20
40.337500000000063
42
-0.41421356237293894
10
-173.97500000000005
20
39.83749999999997
10
-173.97500000000002
20
26.837499999999963
42
-0.414213562373069
10
-174.47500000000005
20
26.337499999999963
10
-187.47499999999999
20
26.337499999999952
42
-0.41421356237313928
10
-187.97499999999999
20
26.837499999999963
0
LWPOLYLINE
5
222
100
AcDbEntity
8
0
100
AcDbPolyline
90
8
70
1
43
0.0
10
-244.62500000000006
20
2.524999999999995
10
-231.625
20
2.5249999999999417
42
0.41421356237304235
10
-231.12500000000006
20
3.0249999999999488
10
-231.12500000000006
20
16.024999999999963
42
0.41421356237304169
10
-231.625
20
16.524999999999963
10
-244.62500000000003
20
16.524999999999963
42
0.41421356237307944
10
-245.1250000000002
20
16.024999999999956
10
-245.12500000000003
20
3.0249999999999488
42
0.41421356237300527
0
LWPOLYLINE
5
223
100
AcDbEntity
8
0
100
AcDbPolyline
90
8
70
1
43
0.0
10
-111.22500000000002
20
19.050000000000026
42
-0.41421356237300283
10
-111.77500000000001
20
19.600000000000009
10
-111.77500000000002
20
23.262499999999982
42
-0.41421356237310686
10
-111.22500000000001
20
23.812499999999986
10
-17.074999999999996
20
23.812499999999986
42
-0.41421356237310453
10
-16.525000000000006
20
23.262499999999982
10
-16.524999999999999
20
19.59999999999998
42
-0.414213562373069
10
-17.074999999999996
20
19.049999999999958
0
LWPOLYLINE
5
224
100
AcDbEntity
8
0
100
AcDbPolyline
90
8
70
1
43
0.0
10
-169.21250000000001
20
64.937499999999986
42
-0.41421356237307944
10
-169.71250000000003
20
64.437499999999972
10
-182.71250000000003
20
64.437499999999957
42
-0.41421356237310542
10
-183.21250000000003
20
64.937499999999986
10
-183.21249999999995
20
77.937499999999957
42
-0.414213562373069
10
-182.71250000000003
20
78.437499999999929
10
-169.71250000000003
20
78.437499999999986
42
-0.41421356237314705
10
-169.21250000000001
20
77.937499999999957
0
LWPOLYLINE
5
225
100
AcDbEntity
8
0
100
AcDbPolyline
90
8
70
1
43
0.0
10
-92.725000000000009
20
39.83749999999997
42
-0.41421356237313145
10
-92.224999999999994
20
40.337499999999963
10
-79.224999999999994
20
40.337499999999942
42
-0.41421356237315748
10
-78.724999999999994
20
39.83749999999997
10
-78.725000000000037
20
26.837499999999981
42
-0.41421356237309243
10
-79.224999999999994
20
26.337499999999991
10
-92.224999999999994
20
26.337499999999974
42
-0.41421356237307422
10
-92.725000000000009
20
26.837499999999981
0
LWPOLYLINE
5
226
100
AcDbEntity
8
0
100
AcDbPolyline
90
8
70
1
43
0.0
10
-102.53749999999998
20
83.987499999999983
42
-0.4142135623730534
10
-103.03750000000001
20
83.487499999999955
10
-116.03750000000002
20
83.487499999999969
42
-0.41421356237299095
10
-116.53750000000002
20
83.987499999999983
10
-116.53750000000009
20
96.987500000000011
42
-0.41421356237311585
10
-116.03749999999998
20
97.487500000000011
10
-103.03750000000001
20
97.487500000000011
42
-0.41421356237313667
10
-102.53749999999999
20
96.987500000000011
0
LWPOLYLINE
5
227
100
AcDbEntity
8
0
100
AcDbPolyline
90
8
70
1
43
0.0
10
-197
20
2.5249999999999417
10
-184
20
2.5249999999999773
42
0.41421356237299128
10
-183.5
20
3.0249999999999844
10
-183.50000000000006
20
16.024999999999991
42
0.41421356237312623
10
-184
20
16.524999999999963
10
-197
20
16.524999999999999
42
0.41421356237298707
10
-197.50000000000006
20
16.024999999999956
10
-197.5
20
3.0249999999999488
42
0.41421356237301438
0
LWPOLYLINE
5
228
100
AcDbEntity
8
0
100
AcDbPolyline
90
8
70
1
43
0.0
10
-244.11824999999999
20
84.987499999999983
10
-244.11824999999999
20
98.987499999999983
42
0.41421356237310542
10
-244.61824999999999
20
99.487499999999969
10
-250.61825000000002
20
99.487499999999969
42
0.41421356237312623
10
-251.11825000000005
20
98.987499999999983
10
-251.11825000000005
20
84.987499999999983
42
0.41421356237297013
10
-250.61825000000005
20
84.487500000000026
10
-244.61825000000002
20
84.487499999999955
42
0.41421356237306384
0
CIRCLE
5
229
100
AcDbEntity
8
0
100
AcDbCircle
10
-119.06250000000003
20
21.431249999999977
30
0
40
2.3812500000000014
210
0
220
-0
230
1
0
LWPOLYLINE
5
230
100
AcDbEntity
8
0
100
AcDbPolyline
90
8
70
1
43
0.0
10
-68.912500000000023
20
116.03749999999998
10
-68.912500000000009
20
103.03750000000001
42
0.41421356237313145
10
-68.412500000000009
20
102.53750000000002
10
-55.412500000000023
20
102.53750000000002
42
0.41421356237317308
10
-54.912500000000016
20
103.03750000000001
10
-54.912500000000001
20
116.03749999999998
42
0.41421356237307422
10
-55.412500000000023
20
116.53750000000002
10
-68.412500000000009
20
116.53750000000002
42
0.41421356237307422
0
LWPOLYLINE
5
231
100
AcDbEntity
8
0
100
AcDbPolyline
90
8
70
1
43
0.0
10
-330.5875000000002
20
19.049999999999958
10
-293.58750000000015
20
19.049999999999983
42
0.41421356237307966
10
-293.03750000000008
20
19.59999999999993
10
-293.03750000000008
20
23.262499999999964
42
0.41421356237318963
10
-293.58750000000015
20
23.812499999999943
10
-330.5875000000002
20
23.812499999999925
42
0.41421356237298629
10
-331.1375000000001
20
23.262499999999946
10
-331.1375000000001
20
19.59999999999993
42
0.41421356237326062
0
LWPOLYLINE
5
232
100
AcDbEntity
8
0
100
AcDbPolyline
90
8
70
1
43
0.0
10
-286.29999999999995
20
102.53749999999997
10
-289.96250000000009
20
102.53749999999995
42
0.41421356237301937
10
-290.51250000000005
20
101.98749999999997
10
-290.5125000000001
20
26.887499999999982
42
0.41421356237311396
10
-289.96250000000009
20
26.337499999999963
10
-286.29999999999995
20
26.337499999999963
42
0.41421356237304541
10
-285.75
20
26.887499999999953
10
-285.75
20
101.98749999999995
42
0.41421356237331264
0
LWPOLYLINE
5
233
100
AcDbEntity
8
0
100
AcDbPolyline
90
8
70
1
43
0.0
10
-254.65000000000003
20
58.887499999999982
42
-0.41421356237300139
10
-254.15000000000006
20
59.387499999999989
10
-241.15000000000006
20
59.387499999999946
42
-0.41421356237313145
10
-240.65000000000001
20
58.887499999999982
10
-240.65000000000003
20
45.887499999999974
42
-0.41421356237307944
10
-241.15000000000006
20
45.387499999999989
10
-254.15000000000006
20
45.387500000000003
42
-0.41421356237299095
10
-254.65000000000001
20
45.887499999999974
0
LWPOLYLINE
5
234
100
AcDbEntity
8
0
100
AcDbPolyline
90
8
70
1
43
0.0
10
-106.51250000000005
20
64.437499999999972
10
-93.512500000000003
20
64.437499999999972
42
0.41421356237315748
10
-93.012499999999989
20
64.937499999999986
10
-93.012499999999989
20
77.937499999999957
42
0.41421356237312623
10
-93.512500000000003
20
78.437499999999972
10
-106.51250000000005
20
78.437500000000014
42
0.41421356237307422
10
-107.01250000000002
20
77.937499999999957
10
-107.01250000000002
20
64.937499999999986
42
0.41421356237314183
0
LWPOLYLINE
5
235
100
AcDbEntity
8
0
100
AcDbPolyline
90
8
70
1
43
0.0
10
-197.00000000000003
20
45.387499999999989
10
-184
20
45.387499999999989
42
0.41421356237301699
10
-183.5
20
45.887499999999974
10
-183.5
20
58.887499999999982
42
0.41421356237320428
10
-184
20
59.387499999999989
10
-197
20
59.387499999999989
42
0.41421356237314705
10
-197.5
20
58.887499999999982
10
-197.5
20
45.887499999999974
42
0.41421356237306384
0
LWPOLYLINE
5
236
100
AcDbEntity
8
0
100
AcDbPolyline
90
8
70
1
43
0.0
10
-306.53750000000008
20
26.337499999999959
42
-0.41421356237310802
10
-307.03750000000002
20
26.837499999999956
10
-307.03750000000014
20
39.837499999999935
42
-0.41421356237334217
10
-306.53750000000008
20
40.337499999999963
10
-293.53750000000014
20
40.337499999999984
42
-0.4142135623730378
10
-293.03750000000008
20
39.83749999999997
10
-293.03750000000008
20
26.837499999999963
42
-0.4142135623732745
10
-293.53750000000014
20
26.337499999999913
0
LWPOLYLINE
5
237
100
AcDbEntity
8
0
100
AcDbPolyline
90
8
70
1
43
0.0
10
-278.46249999999998
20
58.887499999999982
10
-278.46250000000003
20
45.887499999999974
42
0.41421356237311063
10
-277.96249999999998
20
45.387499999999989
10
-264.96249999999998
20
45.387499999999989
42
0.4142135623730378
10
-264.46249999999998
20
45.887499999999974
10
-264.46250000000009
20
58.887499999999982
42
0.41421356237311063
10
-264.96249999999998
20
59.387499999999974
10
-277.96249999999998
20
59.387500000000045
42
0.41421356237310542
0
LWPOLYLINE
5
238
100
AcDbEntity
8
0
100
AcDbPolyline
90
8
70
1
43
0.0
10
-273.19999999999999
20
26.337499999999963
10
-260.20000000000005
20
26.337499999999963
42
0.414213562373004
10
-259.70000000000005
20
26.837499999999963
10
-259.70000000000005
20
39.83749999999997
42
0.41421356237307683
10
-260.20000000000005
20
40.337500000000034
10
-273.19999999999999
20
40.337499999999906
42
0.41421356237311846
10
-273.69999999999993
20
39.83749999999997
10
-273.69999999999993
20
26.837499999999963
42
0.41421356237316265
0
LWPOLYLINE
5
239
100
AcDbEntity
8
0
100
AcDbPolyline
90
8
70
1
43
0.0
10
-207.02500000000009
20
39.83749999999997
42
-0.4142135623732589
10
-206.52500000000006
20
40.337499999999963
10
-193.52500000000003
20
40.337500000000013
42
-0.41421356237299356
10
-193.02500000000003
20
39.83749999999997
10
-193.02500000000003
20
26.837499999999963
42
-0.41421356237313928
10
-193.52500000000003
20
26.337499999999963
10
-206.52500000000009
20
26.33749999999997
42
-0.41421356237310802
10
-207.02500000000001
20
26.837499999999963
0
LWPOLYLINE
5
240
100
AcDbEntity
8
0
100
AcDbPolyline
90
8
70
1
43
0.0
10
-164.44999999999999
20
45.887499999999974
42
-0.41421356237304818
10
-164.95000000000005
20
45.387499999999932
10
-177.95000000000002
20
45.387499999999989
42
-0.41421356237310542
10
-178.45000000000005
20
45.887499999999974
10
-178.45000000000005
20
58.887499999999982
42
-0.41421356237307944
10
-177.95000000000002
20
59.387499999999989
10
-164.95000000000005
20
59.387499999999982
42
-0.41421356237329793
10
-164.45000000000005
20
58.887499999999982
0
LWPOLYLINE
5
241
100
AcDbEntity
8
0
100
AcDbPolyline
90
8
70
1
43
0.0
10
-54.912500000000016
20
64.937499999999986
10
-54.912500000000016
20
77.937499999999957
42
0.41421356237307422
10
-55.412500000000023
20
78.437499999999972
10
-68.412500000000009
20
78.437499999999972
42
0.41421356237313145
10
-68.912500000000009
20
77.937499999999957
10
-68.91249999999998
20
64.937499999999986
42
0.414213562373069
10
-68.412500000000009
20
64.437499999999972
10
-55.412500000000023
20
64.4375
42
0.41421356237315748
0
LWPOLYLINE
5
242
100
AcDbEntity
8
0
100
AcDbPolyline
90
8
70
1
43
0.0
10
-250.17500000000007
20
3.0249999999999488
42
-0.41421356237303747
10
-250.67499999999998
20
2.5249999999999773
10
-263.67500000000001
20
2.5249999999999586
42
-0.41421356237325174
10
-264.17500000000007
20
3.0249999999999488
10
-264.17499999999995
20
16.024999999999956
42
-0.41421356237306123
10
-263.67500000000001
20
16.524999999999981
10
-250.67499999999998
20
16.524999999999952
42
-0.41421356237320817
10
-250.17499999999998
20
16.024999999999963
0
LWPOLYLINE
5
243
100
AcDbEntity
8
0
100
AcDbPolyline
90
8
70
1
43
0.0
10
-149.37500000000006
20
102.53749999999997
10
-136.37500000000006
20
102.53749999999999
42
0.4142135623730846
10
-135.87500000000009
20
103.03749999999999
10
-135.875
20
116.03749999999994
42
0.41421356237301177
10
-136.37500000000006
20
116.53749999999999
10
-149.37500000000006
20
116.53749999999995
42
0.41421356237313667
10
-149.87500000000009
20
116.03749999999994
10
-149.87500000000006
20
103.03749999999999
42
0.4142135623730534
0
LWPOLYLINE
5
244
100
AcDbEntity
8
0
100
AcDbPolyline
90
8
70
1
43
0.0
10
-217.33750000000009
20
116.53749999999995
10
-230.33750000000003
20
116.53749999999995
42
0.4142135623730534
10
-230.83750000000012
20
116.03749999999994
10
-230.83750000000012
20
103.03749999999999
42
0.41421356237314705
10
-230.33750000000003
20
102.53749999999997
10
-217.33750000000009
20
102.53749999999997
42
0.41421356237306384
10
-216.83750000000006
20
103.03749999999999
10
-216.83750000000006
20
116.03749999999994
42
0.41421356237313667
0
LWPOLYLINE
5
245
100
AcDbEntity
8
0
100
AcDbPolyline
90
8
70
1
43
0.0
10
-269.72500000000002
20
16.524999999999963
42
-0.414213562373069
10
-269.22500000000002
20
16.024999999999963
10
-269.22500000000008
20
3.0249999999999488
42
-0.41421356237296758
10
-269.72500000000002
20
2.5249999999999773
10
-282.72500000000008
20
2.5249999999999351
42
-0.414213562373203
10
-283.22500000000002
20
3.0249999999999488
10
-283.22500000000025
20
16.024999999999956
42
-0.41421356237313534
10
-282.72500000000008
20
16.525000000000034
0
LWPOLYLINE
5
246
100
AcDbEntity
8
0
100
AcDbPolyline
90
8
70
1
43
0.0
10
-111.27500000000001
20
2.5249999999999782
42
-0.41421356237309437
10
-111.77500000000002
20
3.0249999999999844
10
-111.77500000000002
20
16.024999999999991
42
-0.41421356237311974
10
-111.27500000000001
20
16.524999999999935
10
-98.275000000000006
20
16.524999999999991
42
-0.41421356237307033
10
-97.775000000000063
20
16.024999999999991
10
-97.775000000000006
20
3.0249999999999844
42
-0.41421356237311779
10
-98.275000000000006
20
2.5250000000000128
0
LWPOLYLINE
5
247
100
AcDbEntity
8
0
100
AcDbPolyline
90
8
70
1
43
0.0
10
-190.92500000000001
20
102.53750000000002
42
-0.4142135623730856
10
-191.47500000000008
20
103.08750000000003
10
-191.47500000000002
20
113.46249999999998
42
-0.41421356237314239
10
-190.92500000000004
20
114.01249999999997
10
-155.47500000000008
20
114.01249999999996
42
-0.41421356237300988
10
-154.92499999999995
20
113.46249999999998
10
-154.92500000000007
20
103.08750000000003
42
-0.41421356237312346
10
-155.47500000000008
20
102.53750000000002
0
LWPOLYLINE
5
248
100
AcDbEntity
8
0
100
AcDbPolyline
90
8
70
1
43
0.0
10
-196.95000000000005
20
19.049999999999955
42
-0.41421356237305484
10
-197.50000000000006
20
19.59999999999998
10
-197.50000000000003
20
23.262499999999964
42
-0.41421356237309742
10
-196.95000000000005
20
23.81249999999995
10
-126.90000000000001
20
23.812499999999964
42
-0.41421356237319201
10
-126.35000000000007
20
23.262499999999982
10
-126.35000000000005
20
19.59999999999998
42
-0.41421356237312101
10
-126.90000000000005
20
19.049999999999969
0
LWPOLYLINE
5
249
100
AcDbEntity
8
0
100
AcDbPolyline
90
8
70
1
43
0.0
10
-255.38075000000006
20
62.4375
10
-249.38075000000003
20
62.437499999999986
42
0.41421356237307422
10
-248.88075000000001
20
62.937499999999972
10
-248.88075000000001
20
76.937499999999957
42
0.41421356237313667
10
-249.38075000000001
20
77.437499999999972
10
-255.38075000000006
20
77.437499999999972
42
0.41421356237300139
10
-255.88075000000003
20
76.937499999999957
10
-255.88075000000006
20
62.937499999999972
42
0.41421356237312101
0
LWPOLYLINE
5
250
100
AcDbEntity
8
0
100
AcDbPolyline
90
8
70
1
43
0.0
10
-45.887500000000017
20
97.487500000000011
42
-0.41421356237310542
10
-45.387500000000031
20
96.987500000000011
10
-45.387500000000031
20
83.987499999999983
42
-0.41421356237310542
10
-45.887500000000017
20
83.487500000000011
10
-58.887500000000024
20
83.487499999999969
42
-0.41421356237303258
10
-59.387499999999996
20
83.98749999999994
10
-59.387500000000031
20
96.987500000000011
42
-0.41421356237307422
10
-58.887500000000024
20
97.487500000000011
0
LWPOLYLINE
5
251
100
AcDbEntity
8
0
100
AcDbPolyline
90
8
70
1
43
0.0
10
-79.224999999999994
20
16.524999999999963
10
-92.224999999999994
20
16.524999999999963
42
0.41421356237313017
10
-92.725000000000009
20
16.024999999999991
10
-92.725000000000009
20
3.0249999999999844
42
0.41421356237311552
10
-92.224999999999994
20
2.5249999999999417
10
-79.224999999999994
20
2.5249999999999773
42
0.41421356237310314
10
-78.724999999999994
20
3.0249999999999844
10
-78.725000000000023
20
16.024999999999991
42
0.41421356237309892
0
LWPOLYLINE
5
252
100
AcDbEntity
8
0
100
AcDbPolyline
90
8
70
1
43
0.0
10
-64.937500000000028
20
97.487500000000011
10
-77.937500000000043
20
97.487499999999983
42
0.41421356237313145
10
-78.437500000000028
20
96.987500000000011
10
-78.437500000000028
20
83.987499999999983
42
0.41421356237306384
10
-77.937500000000043
20
83.487499999999983
10
-64.937500000000028
20
83.487500000000011
42
0.41421356237307422
10
-64.437500000000028
20
83.987499999999983
10
-64.437500000000028
20
96.987500000000011
42
0.41421356237314183
0
LWPOLYLINE
5
253
100
AcDbEntity
8
0
100
AcDbPolyline
90
8
70
1
43
0.0
10
-312.58750000000009
20
16.524999999999928
10
-325.58750000000003
20
16.524999999999928
42
0.41421356237333434
10
-326.08749999999992
20
16.024999999999956
10
-326.08750000000015
20
3.0249999999999488
42
0.41421356237314444
10
-325.58750000000003
20
2.524999999999924
10
-312.58749999999998
20
2.5249999999999062
42
0.41421356237294965
10
-312.08749999999998
20
3.0249999999999488
10
-312.08750000000003
20
16.024999999999963
42
0.41421356237312884
0
LWPOLYLINE
5
254
100
AcDbEntity
8
0
100
AcDbPolyline
90
8
70
1
43
0.0
10
-277.96249999999998
20
102.53749999999998
42
-0.41421356237307422
10
-278.46250000000003
20
103.03749999999999
10
-278.46250000000009
20
116.03749999999994
42
-0.41421356237310542
10
-277.96249999999998
20
116.53749999999999
10
-264.96250000000003
20
116.53750000000001
42
-0.41421356237312623
10
-264.46249999999998
20
116.03749999999994
10
-264.46249999999998
20
103.03749999999999
42
-0.41421356237315748
10
-264.96249999999998
20
102.53749999999997
0
CIRCLE
5
255
100
AcDbEntity
8
0
100
AcDbCircle
10
-288.13125000000008
20
109.53749999999997
30
0
40
2.3812500000000014
210
0
220
-0
230
1
0
LWPOLYLINE
5
256
100
AcDbEntity
8
0
100
AcDbPolyline
90
8
70
1
43
0.0
10
-235.10000000000005
20
45.387499999999989
10
-222.10000000000005
20
45.387499999999989
42
0.41421356237309503
10
-221.60000000000002
20
45.887499999999974
10
-221.59999999999999
20
58.887499999999982
42
0.41421356237313145
10
-222.10000000000005
20
59.387499999999953
10
-235.10000000000005
20
59.387499999999989
42
0.4142135623730378
10
-235.60000000000002
20
58.887499999999982
10
-235.60000000000005
20
45.887499999999974
42
0.41421356237315748
0
LWPOLYLINE
5
257
100
AcDbEntity
8
0
100
AcDbPolyline
90
8
70
1
43
0.0
10
-139.84999999999999
20
2.5249999999999528
42
-0.41421356237306772
10
-140.35000000000002
20
3.0249999999999844
10
-140.35000000000002
20
16.024999999999991
42
-0.41421356237307683
10
-139.84999999999999
20
16.524999999999999
10
-126.85000000000005
20
16.52500000000002
42
-0.41421356237306639
10
-126.34999999999998
20
16.024999999999991
10
-126.34999999999998
20
3.0249999999999844
42
-0.41421356237300916
10
-126.85000000000005
20
2.5249999999999773
0
LWPOLYLINE
5
258
100
AcDbEntity
8
0
100
AcDbPolyline
90
8
70
1
43
0.0
10
-50.650000000000041
20
59.387499999999989
42
-0.41421356237313667
10
-50.150000000000048
20
58.887500000000031
10
-50.150000000000034
20
45.887499999999974
42
-0.41421356237313667
10
-50.650000000000041
20
45.387499999999989
10
-63.650000000000027
20
45.387499999999974
42
-0.414213562373069
10
-64.150000000000006
20
45.887499999999974
10
-64.150000000000006
20
58.887500000000031
42
-0.41421356237308982
10
-63.650000000000027
20
59.387499999999989
0
LWPOLYLINE
5
259
100
AcDbEntity
8
0
100
AcDbPolyline
90
8
70
1
43
0.0
10
-226.07500000000002
20
39.83749999999997
42
-0.41421356237317308
10
-225.57500000000002
20
40.337499999999963
10
-212.57499999999999
20
40.337500000000006
42
-0.41421356237304818
10
-212.07500000000005
20
39.83749999999997
10
-212.07500000000005
20
26.837499999999963
42
-0.4142135623729884
10
-212.57499999999999
20
26.337499999999956
10
-225.57500000000002
20
26.337499999999952
42
-0.41421356237313928
10
-226.07500000000002
20
26.837499999999963
0
LWPOLYLINE
5
260
100
AcDbEntity
8
0
100
AcDbPolyline
90
130
70
1
43
0.0
10
-317.63574657096223
20
119.67025342903784
10
-314.67025342903804
20
122.63574657096203
42
-0.19891236737971987
10
-313.20300685807592
20
123.24350000000003
10
-311.56250000000006
20
123.24350000000003
42
-0.41421356237307422
10
-311.0625
20
122.74350000000001
10
-311.0625
20
120.56250000000003
42
0.99999999999999989
10
-308.06250000000006
20
120.56249999999994
10
-308.0625
20
122.74350000000001
42
-0.41421356237294937
10
-307.56250000000011
20
123.24349999999998
10
-305.92199314192419
20
123.24350000000003
42
-0.19891236737966111
10
-304.45474657096213
20
122.63574657096211
10
-301.48925342903794
20
119.67025342903787
42
0.19891236737967061
10
-300.02200685807594
20
119.06249999999997
10
-223.85299314192417
20
119.06249999999999
42
0.19891236737966012
10
-222.3857465709622
20
119.67025342903793
10
-219.42025342903798
20
122.63574657096211
42
-0.19891236737963966
10
-217.95300685807598
20
123.24349999999998
10
-216.31250000000009
20
123.24349999999998
42
-0.4142135623730534
10
-215.81250000000006
20
122.74349999999995
10
-215.81250000000017
20
120.56249999999994
42
0.99999999999999989
10
-212.81250000000014
20
120.56250000000003
10
-212.81250000000014
20
122.74349999999995
42
-0.4142135623730534
10
-212.31250000000011
20
123.24349999999998
10
-210.6719931419243
20
123.24350000000003
42
-0.19891236737964207
10
-209.20474657096221
20
122.63574657096203
10
-206.239253429038
20
119.67025342903788
42
0.19891236737963996
10
-204.77200685807594
20
119.06249999999997
10
-204.60000000000014
20
119.06249999999993
42
-0.41421356237304663
10
-203.52500000000015
20
117.98749999999995
10
-203.52500000000015
20
101.03749999999997
42
0.41421356237301177
10
-203.02500000000015
20
100.53749999999999
10
-197.02500000000003
20
100.53749999999995
42
0.41421356237304302
10
-196.52500000000009
20
101.03749999999997
10
-196.52500000000015
20
117.98749999999995
42
-0.41421356237305634
10
-195.45000000000005
20
119.06249999999997
10
-90.300000000000011
20
119.06249999999993
42
-0.41421356237310469
10
-89.224999999999994
20
117.98749999999995
10
-89.22499999999998
20
101.03749999999997
42
0.4142135623730534
10
-88.725000000000023
20
100.53749999999999
10
-82.725000000000009
20
100.53750000000001
42
0.41421356237309503
10
-82.224999999999994
20
101.03749999999998
10
-82.224999999999966
20
117.98750000000005
42
-0.414213562373066
10
-81.15000000000002
20
119.06249999999997
10
-57.165493141924237
20
119.06249999999997
42
0.19891236737967041
10
-55.69824657096212
20
119.67025342903793
10
-52.732753429037935
20
122.63574657096203
42
-0.19891236737965501
10
-51.265506858075874
20
123.24350000000003
10
-49.624999999999979
20
123.24350000000001
42
-0.41421356237313667
10
-49.124999999999986
20
122.74350000000001
10
-49.125000000000021
20
120.56249999999999
42
0.99999999999999989
10
-46.125000000000014
20
120.56249999999999
10
-46.125000000000014
20
122.74350000000001
42
-0.41421356237301177
10
-45.625000000000007
20
123.24350000000003
10
-43.984493141924162
20
123.24350000000007
42
-0.19891236737967394
10
-42.517246570962087
20
122.63574657096217
10
-39.551753429037923
20
119.6702534290379
42
0.19891236737965701
10
-38.084506858075827
20
119.06250000000007
10
-1.0750000000000082
20
119.06249999999997
42
-0.41421356237309742
10
8.8817841970012523e-15
20
117.98750000000001
10
-3.5527136788005009e-14
20
1.0749999999999817
42
-0.41421356237309265
10
-1.0750000000000082
20
0
10
-23.278006858075724
20
3.8302694349567901e-14
42
0.1989123673796612
10
-24.745253429037852
20
-0.60775342903788498
10
-28.229746570962043
20
-4.0922465709620877
42
-0.19891236737965731
10
-29.696993141924164
20
-4.7000000000000064
10
-31.337499999999963
20
-4.7000000000000242
42
-0.41421356237309503
10
-31.83749999999997
20
-4.2000000000000171
10
-31.837499999999956
20
-1.5000000000000213
42
0.99999999999999989
10
-34.837499999999999
20
-1.4999999999999503
10
-34.837499999999999
20
-4.1999999999999815
42
-0.4142135623730846
10
-35.33749999999997
20
-4.6999999999999709
10
-36.978006858075815
20
-4.699999999999986
42
-0.1989123673796663
10
-38.445253429037905
20
-4.0922465709620859
10
-41.929746570962017
20
-0.60775342903791718
42
0.19891236737967133
10
-43.396993141924092
20
0
10
-109.00300685807579
20
-3.1641356201816961e-14
42
0.19891236737966925
10
-110.47025342903797
20
-0.60775342903792051
10
-113.95474657096209
20
-4.092246570962101
42
-0.19891236737964171
10
-115.42199314192419
20
-4.7000000000000597
10
-117.06249999999997
20
-4.7000000000000242
42
-0.41421356237313667
10
-117.56249999999997
20
-4.2000000000000171
10
-117.56250000000001
20
-1.5000000000000213
42
0.99999999999999989
10
-120.56249999999999
20
-1.5000000000000213
10
-120.56249999999997
20
-4.2000000000000171
42
-0.41421356237304302
10
-121.0625
20
-4.7000000000000242
10
-122.70300685807584
20
-4.7000000000000517
42
-0.19891236737963389
10
-124.17025342903791
20
-4.0922465709621036
10
-127.65474657096215
20
-0.60775342903794161
42
0.1989123673796514
10
-129.12199314192421
20
-3.5527136788005009e-14
10
-194.72800685807596
20
-2.4147350785597155e-14
42
0.19891236737969123
10
-196.19525342903802
20
-0.60775342903795604
10
-199.67974657096215
20
-4.092246570962101
42
-0.19891236737964171
10
-201.14699314192424
20
-4.7000000000000597
10
-202.78750000000005
20
-4.6999999999999886
42
-0.41421356237315748
10
-203.28749999999999
20
-4.2000000000000171
10
-203.28750000000002
20
-1.5000000000000924
42
0.99999999999999989
10
-206.28749999999999
20
-1.4999999999999503
10
-206.28749999999999
20
-4.2000000000000171
42
-0.41421356237299095
10
-206.78750000000005
20
-4.7000000000000242
10
-208.42800685807586
20
-4.700000000000025
42
-0.19891236737967946
10
-209.89525342903792
20
-4.0922465709621036
10
-213.37974657096203
20
-0.60775342903797136
42
0.19891236737962512
10
-214.84699314192412
20
-1.7763568394002505e-14
10
-282.70624999999995
20
-1.0658141036401503e-13
42
-0.414213562373066
10
-283.78125000000006
20
1.0750000000000171
10
-283.78125000000006
20
1.4499999999998892
42
0.41421356237306706
10
-284.85625000000016
20
2.5249999999999773
10
-291.40625000000034
20
2.524999999999924
42
0.41421356237310147
10
-292.48125000000039
20
1.4499999999998181
10
-292.48125000000033
20
1.0750000000001239
42
-0.41421356237312412
10
-293.55625000000026
20
-3.5527136788005009e-14
10
-318.55300685807578
20
-3.4416913763379853e-14
42
0.198912367379664
10
-320.02025342903784
20
-0.60775342903795604
10
-323.50474657096208
20
-4.0922465709621276
42
-0.1989123673796378
10
-324.9719931419242
20
-4.7000000000000597
10
-326.61249999999995
20
-4.6999999999999886
42
-0.41421356237330315
10
-327.11250000000001
20
-4.2000000000000171
10
-327.11250000000007
20
-1.5000000000000213
42
0.99999999999999989
10
-330.1124999999999
20
-1.4999999999999858
10
-330.1124999999999
20
-4.2000000000000526
42
-0.41421356237318868
10
-330.61250000000001
20
-4.7000000000000242
10
-332.25300685807599
20
-4.6999999999999522
42
-0.19891236737969989
10
-333.72025342903805
20
-4.0922465709621392
10
-337.20474657096219
20
-0.60775342903795848
42
0.1989123673796748
10
-338.67199314192425
20
0
10
-346.5875000000002
20
-7.1054273576010019e-14
42
-0.41421356237307572
10
-347.66250000000002
20
1.074999999999946
10
-347.66250000000014
20
117.98749999999995
42
-0.41421356237307572
10
-346.5875000000002
20
119.06249999999997
10
-319.10299314192423
20
119.06249999999997
42
0.19891236737964285
0
ENDSEC
0
SECTION
2
OBJECTS
0
DICTIONARY
5
C
100
AcDbDictionary
3
ACAD_GROUP
350
D
3
ACAD_MLINESTYLE
350
17
0
DICTIONARY
5
D
100
AcDbDictionary
0
DICTIONARY
5
1A
330
C
100
AcDbDictionary
0
DICTIONARY
5
17
100
AcDbDictionary
0
ENDSEC
0
EOF
