0
SECTION
2
HEADER
9
$INSUNITS
70
4
9
$ACADVER
1
AC1014
9
$HANDSEED
5
FFFF
0
ENDSEC
0
SECTION
2
TABLES
0
TABLE
2
VPORT
5
8
100
AcDbSymbolTable
0
ENDTAB
0
TABLE
2
LTYPE
5
5
100
AcDbSymbolTable
0
LTYPE
5
14
100
AcDbSymbolTableRecord
100
AcDbLinetypeTableRecord
2
BYBLOCK
70
0
0
LTYPE
5
15
100
AcDbSymbolTableRecord
100
AcDbLinetypeTableRecord
2
BYLAYER
70
0
0
ENDTAB
0
TABLE
2
LAYER
5
2
100
AcDbSymbolTable
70
2
0
LAYER
5
50
100
AcDbSymbolTableRecord
100
AcDbLayerTableRecord
2
0
70
0
6
CONTINUOUS
0
ENDTAB
0
TABLE
2
STYLE
5
3
100
AcDbSymbolTable
70
1
0
STYLE
5
11
100
AcDbSymbolTableRecord
100
AcDbTextStyleTableRecord
2
STANDARD
70
0
0
ENDTAB
0
TABLE
2
VIEW
5
6
100
AcDbSymbolTable
70
0
0
ENDTAB
0
TABLE
2
UCS
5
7
100
AcDbSymbolTable
70
0
0
ENDTAB
0
TABLE
2
APPID
5
9
100
AcDbSymbolTable
70
2
0
APPID
5
12
100
AcDbSymbolTableRecord
100
AcDbRegAppTableRecord
2
ACAD
70
0
0
ENDTAB
0
TABLE
2
DIMSTYLE
5
A
100
AcDbSymbolTable
70
1
0
ENDTAB
0
TABLE
2
BLOCK_RECORD
5
1
100
AcDbSymbolTable
70
1
0
BLOCK_RECORD
5
1F
100
AcDbSymbolTableRecord
100
AcDbBlockTableRecord
2
*MODEL_SPACE
0
BLOCK_RECORD
5
1B
100
AcDbSymbolTableRecord
100
AcDbBlockTableRecord
2
*PAPER_SPACE
0
ENDTAB
0
ENDSEC
0
SECTION
2
BLOCKS
0
BLOCK
5
20
100
AcDbEntity
100
AcDbBlockBegin
2
*MODEL_SPACE
0
ENDBLK
5
21
100
AcDbEntity
100
AcDbBlockEnd
0
BLOCK
5
1C
100
AcDbEntity
100
AcDbBlockBegin
2
*PAPER_SPACE
0
ENDBLK
5
1D
100
AcDbEntity
100
AcDbBlockEnd
0
ENDSEC
0
SECTION
2
ENTITIES
0
LWPOLYLINE
5
100
100
AcDbEntity
8
0
100
AcDbPolyline
90
106
70
1
43
0.0
10
-34.200609665441
20
113.71850000000001
42
-0.19891236737959442
10
-33.175304832720755
20
113.29380483272075
10
-30.026753429037885
20
110.14525342903802
42
0.19891236737966664
10
-28.5595068580758
20
109.53749999999999
10
8.4500000000000615
20
109.53749999999997
42
-0.41421356237309503
10
9.525000000000011
20
108.46250000000001
10
9.5249999999999417
20
-8.4500000000000206
42
-0.4142135623731138
10
8.4499999999999211
20
-9.5249999999999702
10
-13.753006858075899
20
-9.5249999999999417
42
0.19891236737965415
10
-15.2202534290379
20
-10.1327534290379
10
-18.887804832720555
20
-13.800304832720546
42
-0.19891236737964507
10
-19.913109665440999
20
-14.225000000000001
10
-21.812500000000099
20
-14.224999999999998
42
-0.41421356237309503
10
-22.312500000000099
20
-13.725000000000001
10
-22.312500000000107
20
-11.025
42
0.99999999999999989
10
-25.312500000000103
20
-11.025
10
-25.3125
20
-13.725000000000101
42
-0.41421356237303647
10
-25.812500000000004
20
-14.225000000000001
10
-27.711890334559005
20
-14.22500000000001
42
-0.19891236737967577
10
-28.737195167279602
20
-13.800304832720499
10
-32.404746570962132
20
-10.13275342903793
42
0.19891236737965862
10
-33.871993141924207
20
-9.5250000000000199
10
-99.4780068580761
20
-9.5250000000000394
42
0.19891236737963619
10
-100.945253429038
20
-10.1327534290379
10
-104.61280483272076
20
-13.800304832720741
42
-0.19891236737959556
10
-105.63810966544099
20
-14.225000000000001
10
-107.53749999999999
20
-14.225000000000108
42
-0.41421356237315354
10
-108.03750000000001
20
-13.725000000000001
10
-108.03750000000001
20
-11.025
42
0.99999999999999989
10
-111.03749999999999
20
-11.025
10
-111.03749999999999
20
-13.725000000000001
42
-0.41421356237309503
10
-111.53750000000001
20
-14.225000000000001
10
-113.43689033455901
20
-14.225000000000358
42
-0.19891236737972079
10
-114.46219516728
20
-13.800304832720499
10
-118.12974657096197
20
-10.132753429037866
42
0.19891236737965842
10
-119.596993141924
20
-9.5250000000000021
10
-185.20300685807601
20
-9.5250000000000394
42
0.19891236737965862
10
-186.67025342903801
20
-10.132753429038001
10
-190.33780483272025
20
-13.800304832720261
42
-0.19891236737971768
10
-191.36310966544099
20
-14.225000000000001
10
-193.26250000000002
20
-14.224999999999973
42
-0.41421356237309503
10
-193.76249999999999
20
-13.725000000000001
10
-193.7625000000001
20
-11.025
42
0.99999999999999989
10
-196.76249999999999
20
-11.0250000000001
10
-196.76249999999999
20
-13.725000000000101
42
-0.41421356237303647
10
-197.26249999999999
20
-14.225000000000001
10
-199.16189033455902
20
-14.2250000000003
42
-0.19891236737973567
10
-200.18719516728001
20
-13.8003048327204
10
-203.85474657096199
20
-10.132753429037901
42
0.19891236737965842
10
-205.321993141924
20
-9.5249999999999702
10
-309.02800685807608
20
-9.525000000000011
42
0.1989123673796519
10
-310.49525342903797
20
-10.1327534290379
10
-314.16280483272027
20
-13.80030483272013
42
-0.19891236737972551
10
-315.188109665441
20
-14.224999999999902
10
-317.08749999999998
20
-14.225000000000108
42
-0.41421356237327062
10
-317.58749999999998
20
-13.724999999999801
10
-317.58749999999992
20
-11.024999999999901
42
0.99999999999999989
10
-320.58749999999998
20
-11.024999999999901
10
-320.5875000000002
20
-13.724999999999801
42
-0.41421356237321211
10
-321.08749999999998
20
-14.224999999999801
10
-322.98689033455901
20
-14.224999999999543
42
-0.19891236737959245
10
-324.012195167279
20
-13.8003048327204
10
-327.67974657096192
20
-10.132753429037711
42
0.1989123673796391
10
-329.14699314192399
20
-9.5249999999999009
10
-337.06250000000006
20
-9.5250000000000465
42
-0.41421356237313528
10
-338.13749999999999
20
-8.4499999999999531
10
-338.13749999999999
20
108.46250000000001
42
-0.41421356237309503
10
-337.06250000000006
20
109.53749999999999
10
-309.57799314192403
20
109.53749999999984
42
0.19891236737965801
10
-308.11074657096202
20
110.14525342903801
10
-304.9621951672795
20
113.29380483272048
42
-0.1989123673796647
10
-303.936890334559
20
113.71850000000002
10
-302.03750000000002
20
113.71850000000002
42
-0.41421356237309503
10
-301.53750000000002
20
113.21850000000001
10
-301.53750000000008
20
111.03749999999999
42
0.99999999999999989
10
-298.53750000000002
20
111.03749999999999
10
-298.53750000000002
20
113.21850000000001
42
-0.41421356237309503
10
-298.03750000000002
20
113.71850000000002
10
-296.13810966544099
20
113.71850000000073
42
-0.19891236737966031
10
-295.11280483271997
20
113.29380483272101
10
-291.96425342903819
20
110.14525342903782
42
0.19891236737965803
10
-290.49700685807602
20
109.53749999999999
10
-214.32799314192403
20
109.53750000000012
42
0.19891236737965803
10
-212.86074657096202
20
110.14525342903801
10
-209.7121951672795
20
113.29380483272053
42
-0.1989123673796557
10
-208.686890334559
20
113.71850000000002
10
-206.78750000000002
20
113.71850000000002
42
-0.41421356237309503
10
-206.28749999999999
20
113.21850000000001
10
-206.28750000000008
20
111.03749999999999
42
0.99999999999999989
10
-203.28749999999999
20
111.03749999999999
10
-203.28750000000002
20
113.21850000000001
42
-0.41421356237309503
10
-202.78750000000002
20
113.71850000000002
10
-200.88810966544102
20
113.71850000000002
42
-0.19891236737953427
10
-199.862804832721
20
113.29380483272101
10
-196.714253429038
20
110.14525342903804
42
0.17702911433689478
10
-195.422224562677
20
109.54491112500702
10
-47.640493141924203
20
109.53749999999998
42
0.19891236737966306
10
-46.173246570962107
20
110.14525342903801
10
-43.024695167279262
20
113.29380483272075
42
-0.19891236737959497
10
-41.99939033455901
20
113.71850000000002
10
-40.100000000000009
20
113.71850000000011
42
-0.4142135623730378
10
-39.600000000000001
20
113.21850000000001
10
-39.599999999999994
20
111.03749999999999
42
0.99999999999999989
10
-36.600000000000001
20
111.03749999999999
10
-36.599999999999909
20
113.21850000000001
42
-0.41421356237309503
10
-36.099999999999909
20
113.71850000000002
0
LWPOLYLINE
5
101
100
AcDbEntity
8
0
100
AcDbPolyline
90
8
70
1
43
0.0
10
-266.16300000000001
20
32.8125
10
-272.06299999999999
20
32.8125
42
0.41421356237314949
10
-272.613
20
32.262500000000003
10
-272.61299999999994
20
18.3625000000001
42
0.41421356237314821
10
-272.06299999999999
20
17.812500000000099
10
-266.16300000000001
20
17.812500000000032
42
0.41421356237309503
10
-265.61300000000006
20
18.3625000000001
10
-265.61300000000006
20
32.262500000000102
42
0.41421356237304069
0
LWPOLYLINE
5
102
100
AcDbEntity
8
0
100
AcDbPolyline
90
8
70
1
43
0.0
10
-131.11250000000001
20
74.512500000000003
10
-131.11250000000001
20
87.412500000000094
42
0.41421356237309503
10
-131.66249999999999
20
87.962500000000119
10
-144.5625
20
87.962500000000091
42
0.41421356237309503
10
-145.11250000000001
20
87.412500000000094
10
-145.11249999999993
20
74.512500000000003
42
0.41421356237309503
10
-144.5625
20
73.962500000000105
10
-131.66249999999999
20
73.962500000000034
42
0.41421356237304302
0
LWPOLYLINE
5
103
100
AcDbEntity
8
0
100
AcDbPolyline
90
8
70
1
43
0.0
10
-206.47500000000002
20
35.862499999999997
10
-193.57500000000002
20
35.862499999999997
42
0.41421356237309503
10
-193.02500000000003
20
36.412500000000001
10
-193.02500000000009
20
49.3125
42
0.41421356237314705
10
-193.57500000000002
20
49.862499999999997
10
-206.47500000000002
20
49.862500000000026
42
0.41421356237314705
10
-207.02500000000001
20
49.3125
10
-207.02499999999998
20
36.412500000000001
42
0.41421356237309503
0
LWPOLYLINE
5
104
100
AcDbEntity
8
0
100
AcDbPolyline
90
8
70
1
43
0.0
10
-44.550000000000097
20
-6.9999999999999911
10
-31.650000000000102
20
-6.9999999999999911
42
0.41421356237309503
10
-31.100000000000101
20
-6.4500000000000002
10
-31.100000000000104
20
6.4500000000000002
42
0.41421356237309503
10
-31.650000000000102
20
6.9999999999999911
10
-44.550000000000097
20
6.9999999999999973
42
0.41421356237309503
10
-45.100000000000108
20
6.4500000000000002
10
-45.100000000000094
20
-6.4500000000000002
42
0.41421356237309503
0
LWPOLYLINE
5
105
100
AcDbEntity
8
0
100
AcDbPolyline
90
8
70
1
43
0.0
10
-225.52500000000003
20
35.862500000000075
42
-0.41421356237309503
10
-226.07499999999993
20
36.412500000000001
10
-226.07500000000002
20
49.3125
42
-0.41421356237314705
10
-225.52500000000003
20
49.862500000000097
10
-212.62500000000003
20
49.862500000000026
42
-0.41421356237314705
10
-212.0750000000001
20
49.3125
10
-212.07500000000005
20
36.412500000000001
42
-0.41421356237309503
10
-212.62500000000003
20
35.862500000000004
0
LWPOLYLINE
5
106
100
AcDbEntity
8
0
100
AcDbPolyline
90
8
70
1
43
0.0
10
-93.012500000000017
20
74.512500000000003
10
-93.012500000000017
20
87.412500000000094
42
0.41421356237314239
10
-93.562500000000099
20
87.962500000000006
10
-106.46250000000002
20
87.962500000000091
42
0.41421356237309503
10
-107.01250000000002
20
87.412500000000094
10
-107.01250000000002
20
74.512500000000003
42
0.41421356237309503
10
-106.46250000000002
20
73.962500000000105
10
-93.562500000000014
20
73.962500000000006
42
0.41421356237309503
0
LWPOLYLINE
5
107
100
AcDbEntity
8
0
100
AcDbPolyline
90
8
70
1
43
0.0
10
-5.4562500000000114
20
87.962500000000006
10
-18.356250000000102
20
87.962500000000006
42
0.41421356237304185
10
-18.906249999999901
20
87.412500000000094
10
-18.906249999999996
20
74.512500000000003
42
0.41421356237309387
10
-18.356250000000003
20
73.962500000000105
10
-5.4562500000000096
20
73.962500000000077
42
0.41421356237309503
10
-4.9062500000000089
20
74.512500000000003
10
-4.9062500000000124
20
87.412500000000094
42
0.41421356237309559
0
LWPOLYLINE
5
108
100
AcDbEntity
8
0
100
AcDbPolyline
90
8
70
1
43
0.0
10
-245.12500000000003
20
49.3125
10
-245.12500000000003
20
36.412500000000001
42
0.41421356237304302
10
-244.57499999999999
20
35.862499999999997
10
-231.67500000000004
20
35.862500000000075
42
0.41421356237309503
10
-231.125
20
36.412500000000001
10
-231.12500000000009
20
49.312500000000099
42
0.41421356237309503
10
-231.67500000000004
20
49.862500000000097
10
-244.57499999999999
20
49.862499999999926
42
0.41421356237309503
0
LWPOLYLINE
5
109
100
AcDbEntity
8
0
100
AcDbPolyline
90
8
70
1
43
0.0
10
-169.21249999999992
20
74.512500000000102
42
-0.41421356237309503
10
-169.76249999999999
20
73.962500000000034
10
-182.66249999999999
20
73.962500000000077
42
-0.41421356237309503
10
-183.21249999999992
20
74.512500000000003
10
-183.21249999999998
20
87.412500000000094
42
-0.41421356237309503
10
-182.66249999999999
20
87.962500000000091
10
-169.76249999999999
20
87.96250000000002
42
-0.41421356237309503
10
-169.21250000000009
20
87.412500000000094
0
LWPOLYLINE
5
110
100
AcDbEntity
8
0
100
AcDbPolyline
90
8
70
1
43
0.0
10
-20.89425
20
89.96250000000002
10
-26.794249999999899
20
89.96250000000002
42
0.41421356237309503
10
-27.344249999999903
20
89.412500000000094
10
-27.344249999999999
20
75.512500000000102
42
0.41421356237314705
10
-26.794250000000002
20
74.962500000000006
10
-20.89425
20
74.962500000000105
42
0.41421356237309503
10
-20.344250000000002
20
75.512500000000102
10
-20.344250000000073
20
89.412500000000094
42
0.41421356237309503
0
LWPOLYLINE
5
111
100
AcDbEntity
8
0
100
AcDbPolyline
90
8
70
1
43
0.0
10
-273.69999999999999
20
6.4500000000000712
42
-0.41421356237305718
10
-273.14999999999998
20
7.0000000000000329
10
-260.25
20
6.9999999999999574
42
-0.41421356237309503
10
-259.7000000000001
20
6.4500000000000313
10
-259.70000000000005
20
-6.4499999999999202
42
-0.41421356237305784
10
-260.25
20
-6.9999999999998472
10
-273.14999999999998
20
-6.9999999999999183
42
-0.41421356237309503
10
-273.70000000000005
20
-6.4499999999998501
0
LWPOLYLINE
5
112
100
AcDbEntity
8
0
100
AcDbPolyline
90
8
70
1
43
0.0
10
-160.23750000000004
20
68.912499999999994
10
-173.13749999999999
20
68.912499999999994
42
0.41421356237309503
10
-173.68750000000003
20
68.362499999999997
10
-173.68750000000006
20
55.462500000000006
42
0.41421356237304302
10
-173.13749999999999
20
54.912500000000108
10
-160.23750000000004
20
54.912500000000044
42
0.41421356237309503
10
-159.6875
20
55.462500000000006
10
-159.68750000000003
20
68.362499999999997
42
0.41421356237309503
0
LWPOLYLINE
5
113
100
AcDbEntity
8
0
100
AcDbPolyline
90
8
70
1
43
0.0
10
-121.58750000000001
20
55.462500000000006
10
-121.58750000000001
20
68.362499999999997
42
0.41421356237309503
10
-122.13750000000002
20
68.912499999999994
10
-135.03749999999999
20
68.912499999999994
42
0.41421356237309503
10
-135.58750000000001
20
68.362499999999997
10
-135.58749999999998
20
55.462500000000006
42
0.41421356237309503
10
-135.03749999999999
20
54.912500000000009
10
-122.13749999999999
20
54.912500000000037
42
0.41421356237303358
0
LWPOLYLINE
5
114
100
AcDbEntity
8
0
100
AcDbPolyline
90
8
70
1
43
0.0
10
-198.33750000000003
20
68.912499999999923
42
-0.41421356237309503
10
-197.78750000000008
20
68.362499999999997
10
-197.78750000000005
20
55.462500000000006
42
-0.41421356237309503
10
-198.33750000000003
20
54.912500000000044
10
-211.23750000000001
20
54.912499999999937
42
-0.41421356237309503
10
-211.78750000000008
20
55.462500000000006
10
-211.78750000000002
20
68.362499999999997
42
-0.41421356237309503
10
-211.23750000000001
20
68.912499999999994
0
LWPOLYLINE
5
115
100
AcDbEntity
8
0
100
AcDbPolyline
90
8
70
1
43
0.0
10
-11.762499999999999
20
49.3125
10
-11.762499999999999
20
36.412500000000001
42
0.41421356237309503
10
-11.2125
20
35.862499999999997
10
1.6875000000000311
20
35.862500000000004
42
0.41421356237309503
10
2.2375000000000309
20
36.412500000000001
10
2.2375000000000282
20
49.3125
42
0.41421356237309476
10
1.6875000000000306
20
49.862499999999997
10
-11.2125
20
49.862499999999997
42
0.41421356237309503
0
LWPOLYLINE
5
116
100
AcDbEntity
8
0
100
AcDbPolyline
90
8
70
1
43
0.0
10
-235.05000000000001
20
16.812500000000068
42
-0.41421356237309503
10
-235.60000000000005
20
17.3625000000001
10
-235.60000000000008
20
30.262500000000003
42
-0.41421356237309503
10
-235.05000000000001
20
30.812500000000071
10
-222.15000000000003
20
30.81250000000006
42
-0.41421356237314705
10
-221.60000000000008
20
30.262500000000003
10
-221.60000000000011
20
17.3625000000001
42
-0.41421356237314821
10
-222.15000000000003
20
16.812500000000075
0
LWPOLYLINE
5
117
100
AcDbEntity
8
0
100
AcDbPolyline
90
8
70
1
43
0.0
10
-265.46924999999999
20
89.412500000000094
42
-0.41421356237309503
10
-264.91924999999998
20
89.962500000000091
10
-259.01925
20
89.96250000000002
42
-0.41421356237309503
10
-258.4692500000001
20
89.412500000000094
10
-258.46924999999993
20
75.512500000000102
42
-0.41421356237309503
10
-259.01925
20
74.962500000000034
10
-264.91924999999998
20
74.962500000000034
42
-0.41421356237309503
10
-265.46925000000005
20
75.512500000000102
0
LWPOLYLINE
5
118
100
AcDbEntity
8
0
100
AcDbPolyline
90
8
70
1
43
0.0
10
-240.65000000000001
20
-6.4499999999999202
42
-0.41421356237313761
10
-241.20000000000002
20
-6.9999999999999973
10
-254.09999999999999
20
-6.9999999999999183
42
-0.41421356237309503
10
-254.65000000000006
20
-6.4499999999998501
10
-254.65000000000001
20
6.4500000000000304
42
-0.41421356237309559
10
-254.09999999999999
20
7.0000000000000284
10
-241.20000000000002
20
7.0000000000000266
42
-0.41421356237311047
10
-240.65000000000009
20
6.4500000000000712
0
LWPOLYLINE
5
119
100
AcDbEntity
8
0
100
AcDbPolyline
90
8
70
1
43
0.0
10
4.6187500000000616
20
55.462499999794908
10
4.6187500000000616
20
68.362499999794906
42
0.41421356237309503
10
4.0687500000000707
20
68.912499999794903
10
-8.8312499999999297
20
68.912499999794903
42
0.41421356237309503
10
-9.3812499999999197
20
68.362499999794906
10
-9.3812499999999268
20
55.462499999794908
42
0.41421356237309503
10
-8.8312499999999297
20
54.91249999979491
10
4.0687500000000707
20
54.91249999979491
42
0.41421356237309503
0
LWPOLYLINE
5
120
100
AcDbEntity
8
0
100
AcDbPolyline
90
8
70
1
43
0.0
10
-177.90000000000003
20
16.812500000000039
42
-0.41421356237309503
10
-178.44999999999999
20
17.362500000000001
10
-178.44999999999996
20
30.262500000000003
42
-0.4142135623732015
10
-177.90000000000003
20
30.812500000000128
10
-165
20
30.8125
42
-0.41421356237309503
10
-164.44999999999999
20
30.262500000000003
10
-164.45000000000007
20
17.3625000000001
42
-0.41421356237314821
10
-165
20
16.812500000000075
0
LWPOLYLINE
5
121
100
AcDbEntity
8
0
100
AcDbPolyline
90
8
70
1
43
0.0
10
3.5317500000000015
20
75.512500000000102
10
3.5317500000000015
20
89.412500000000094
42
0.41421356237309537
10
2.9817500000000106
20
89.96250000000002
10
-2.9182499999999587
20
89.962500000000091
42
0.41421356237309503
10
-3.4682499999999497
20
89.412500000000094
10
-3.4682500000000269
20
75.512500000000102
42
0.41421356237309537
10
-2.9182499999999583
20
74.962500000000006
10
2.9817500000000114
20
74.962500000000105
42
0.41421356237309503
0
LWPOLYLINE
5
122
100
AcDbEntity
8
0
100
AcDbPolyline
90
8
70
1
43
0.0
10
-270.23174999999998
20
67.362500000000097
10
-270.23174999999998
20
53.462500000000006
42
0.41421356237309503
10
-269.68175000000002
20
52.912500000000108
10
-263.78174999999999
20
52.912500000000009
42
0.41421356237314705
10
-263.23174999999998
20
53.462500000000105
10
-263.23174999999992
20
67.362500000000097
42
0.41421356237309503
10
-263.78174999999999
20
67.912500000000193
10
-269.68175000000002
20
67.912500000000094
42
0.41421356237309503
0
LWPOLYLINE
5
123
100
AcDbEntity
8
0
100
AcDbPolyline
90
8
70
1
43
0.0
10
-58.837499999999999
20
54.912500000000009
10
-45.9375
20
54.912500000000009
42
0.41421356237309503
10
-45.387500000000003
20
55.462500000000006
10
-45.387500000000003
20
68.362499999999997
42
0.41421356237309503
10
-45.9375
20
68.912499999999994
10
-58.837500000000098
20
68.912499999999994
42
0.41421356237304302
10
-59.387500000000003
20
68.362499999999997
10
-59.387499999999996
20
55.462500000000006
42
0.41421356237309503
0
LWPOLYLINE
5
124
100
AcDbEntity
8
0
100
AcDbPolyline
90
8
70
1
43
0.0
10
-242.28700000000003
20
32.812500000000099
10
-248.18700000000004
20
32.812500000000099
42
0.41421356237304069
10
-248.73699999999999
20
32.262500000000102
10
-248.73700000000002
20
18.3625000000001
42
0.41421356237309503
10
-248.18700000000004
20
17.812500000000099
10
-242.28700000000003
20
17.812500000000032
42
0.41421356237309503
10
-241.73699999999999
20
18.3625000000001
10
-241.73699999999994
20
32.262500000000102
42
0.41421356237304069
0
LWPOLYLINE
5
125
100
AcDbEntity
8
0
100
AcDbPolyline
90
8
70
1
43
0.0
10
-79.699999999999903
20
105.46250000000001
10
-79.699999999999903
20
91.5625
42
0.41421356237309503
10
-79.149999999999906
20
91.012500000000003
10
-73.25
20
91.012500000000074
42
0.41421356237309503
10
-72.700000000000003
20
91.5625
10
-72.700000000000003
20
105.46250000000001
42
0.41421356237309503
10
-73.25
20
106.0125
10
-79.149999999999906
20
106.01250000000007
42
0.41421356237309503
0
LWPOLYLINE
5
126
100
AcDbEntity
8
0
100
AcDbPolyline
90
8
70
1
43
0.0
10
-88.250000000000099
20
-6.4500000000000002
42
-0.41421356237309503
10
-88.800000000000097
20
-6.9999999999999973
10
-101.70000000000002
20
-6.9999999999999973
42
-0.41421356237309503
10
-102.25000000000001
20
-6.4500000000000002
10
-102.25000000000001
20
6.4500000000000313
42
-0.41421356237309503
10
-101.70000000000002
20
7.0000000000000284
10
-88.800000000000097
20
6.9999999999999929
42
-0.41421356237311163
10
-88.250000000000142
20
6.4500000000000002
0
LWPOLYLINE
5
127
100
AcDbEntity
8
0
100
AcDbPolyline
90
8
70
1
43
0.0
10
-179.28750000000002
20
68.912500000000065
42
-0.41421356237309503
10
-178.73749999999995
20
68.362499999999997
10
-178.73750000000001
20
55.462500000000006
42
-0.41421356237309503
10
-179.28750000000002
20
54.912500000000009
10
-192.1875
20
54.91250000000008
42
-0.41421356237309503
10
-192.73749999999993
20
55.462500000000006
10
-192.73750000000001
20
68.362499999999997
42
-0.41421356237309503
10
-192.1875
20
68.912499999999994
0
LWPOLYLINE
5
128
100
AcDbEntity
8
0
100
AcDbPolyline
90
8
70
1
43
0.0
10
-140.34999999999999
20
30.262500000000099
10
-140.34999999999999
20
17.362500000000001
42
0.41421356237304185
10
-139.80000000000001
20
16.8125
10
-126.90000000000001
20
16.812500000000103
42
0.41421356237309503
10
-126.34999999999999
20
17.3625000000001
10
-126.34999999999998
20
30.262500000000003
42
0.41421356237309503
10
-126.90000000000001
20
30.812500000000004
10
-139.80000000000001
20
30.812500000000096
42
0.41421356237309503
0
LWPOLYLINE
5
129
100
AcDbEntity
8
0
100
AcDbPolyline
90
8
70
1
43
0.0
10
-230.28750000000002
20
54.912500000000108
10
-217.38749999999999
20
54.912500000000009
42
0.41421356237314705
10
-216.83750000000003
20
55.462500000000105
10
-216.83750000000006
20
68.362499999999997
42
0.41421356237315182
10
-217.38749999999999
20
68.912499999999994
10
-230.28750000000002
20
68.912499999999994
42
0.41421356237309503
10
-230.83750000000003
20
68.362499999999997
10
-230.83749999999995
20
55.462500000000006
42
0.41421356237309503
0
LWPOLYLINE
5
130
100
AcDbEntity
8
0
100
AcDbPolyline
90
8
70
1
43
0.0
10
-88.250000000000099
20
17.362500000000001
42
-0.41421356237309503
10
-88.800000000000097
20
16.812500000000004
10
-101.70000000000002
20
16.812500000000103
42
-0.41421356237309503
10
-102.25000000000001
20
17.3625000000001
10
-102.25000000000001
20
30.262500000000003
42
-0.41421356237309503
10
-101.70000000000002
20
30.8125
10
-88.800000000000011
20
30.812499999999964
42
-0.41421356237309503
10
-88.250000000000043
20
30.262500000000003
0
LWPOLYLINE
5
131
100
AcDbEntity
8
0
100
AcDbPolyline
90
8
70
1
43
0.0
10
-322.16250000000002
20
49.862500000000097
10
-335.0625
20
49.862499999999905
42
0.41421356237309503
10
-335.61250000000001
20
49.3125
10
-335.61249999999995
20
36.412500000000101
42
0.41421356237314705
10
-335.0625
20
35.862499999999997
10
-322.16250000000002
20
35.862500000000075
42
0.41421356237304302
10
-321.61250000000001
20
36.412499999999909
10
-321.61249999999995
20
49.3125
42
0.41421356237309503
0
LWPOLYLINE
5
132
100
AcDbEntity
8
0
100
AcDbPolyline
90
8
70
1
43
0.0
10
-216.55000000000001
20
30.262500000000202
10
-216.55000000000001
20
17.3625000000001
42
0.41421356237314821
10
-216
20
16.8125
10
-203.10000000000002
20
16.812500000000075
42
0.41421356237304302
10
-202.55000000000001
20
17.362499999999905
10
-202.54999999999998
20
30.262500000000003
42
0.41421356237309503
10
-203.10000000000002
20
30.812500000000004
10
-216
20
30.812500000000071
42
0.41421356237298862
0
LWPOLYLINE
5
133
100
AcDbEntity
8
0
100
AcDbPolyline
90
8
70
1
43
0.0
10
-297.51249999999999
20
6.4500000000000703
10
-297.51249999999999
20
-6.4499999999998501
42
0.41421356237309503
10
-296.96249999999998
20
-6.999999999999921
10
-284.0625
20
-6.9999999999999885
42
0.41421356237313289
10
-283.51249999999999
20
-6.4499999999998492
10
-283.51250000000005
20
6.4500000000000712
42
0.41421356237309503
10
-284.0625
20
7.0000000000000302
10
-296.96249999999998
20
6.9999999999998845
42
0.41421356237311102
0
LWPOLYLINE
5
134
100
AcDbEntity
8
0
100
AcDbPolyline
90
8
70
1
43
0.0
10
-59.387499999999996
20
106.46250000000002
42
-0.41421356237309503
10
-58.837499999999999
20
107.01250000000002
10
-45.9375
20
107.01249999999995
42
-0.41421356237309503
10
-45.387500000000074
20
106.46250000000002
10
-45.387500000000003
20
93.562500000000099
42
-0.41421356237309503
10
-45.9375
20
93.012500000000102
10
-58.837499999999999
20
93.012500000000017
42
-0.41421356237314239
10
-59.387499999999996
20
93.562500000000099
0
LWPOLYLINE
5
135
100
AcDbEntity
8
0
100
AcDbPolyline
90
8
70
1
43
0.0
10
-97.774999999999949
20
36.412500000000001
42
-0.41421356237309503
10
-98.325000000000017
20
35.862499999999933
10
-111.22500000000001
20
35.862500000000004
42
-0.41421356237309503
10
-111.77500000000001
20
36.412500000000001
10
-111.77500000000001
20
49.3125
42
-0.41421356237314705
10
-111.22500000000001
20
49.862500000000097
10
-98.325000000000017
20
49.862499999999997
42
-0.41421356237309503
10
-97.77500000000002
20
49.3125
0
LWPOLYLINE
5
136
100
AcDbEntity
8
0
100
AcDbPolyline
90
8
70
1
43
0.0
10
-36.412500000000001
20
87.962500000000006
10
-49.3125
20
87.962500000000006
42
0.41421356237309503
10
-49.862499999999997
20
87.412500000000094
10
-49.862499999999997
20
74.512500000000003
42
0.41421356237309503
10
-49.3125
20
73.962500000000006
10
-36.412500000000001
20
73.962500000000077
42
0.41421356237309503
10
-35.862499999999997
20
74.512500000000003
10
-35.862500000000004
20
87.412500000000094
42
0.41421356237309503
0
LWPOLYLINE
5
137
100
AcDbEntity
8
0
100
AcDbPolyline
90
8
70
1
43
0.0
10
-335.61250000000001
20
6.4500000000000712
42
-0.41421356237307377
10
-335.0625
20
7.0000000000000284
10
-322.16250000000002
20
7.0000000000000266
42
-0.41421356237307377
10
-321.61250000000007
20
6.4500000000001396
10
-321.61250000000018
20
-6.4499999999998519
42
-0.41421356237317425
10
-322.16250000000002
20
-6.9999999999998552
10
-335.0625
20
-7.0000000000000604
42
-0.41421356237309503
10
-335.61250000000024
20
-6.4499999999998501
0
LWPOLYLINE
5
138
100
AcDbEntity
8
0
100
AcDbPolyline
90
8
70
1
43
0.0
10
-26.337500000000006
20
55.462500000000006
42
-0.41421356237309503
10
-26.887500000000003
20
54.912500000000009
10
-39.787500000000001
20
54.912500000000009
42
-0.41421356237309503
10
-40.337499999999991
20
55.462500000000006
10
-40.337499999999991
20
68.362499999999997
42
-0.41421356237309503
10
-39.787500000000001
20
68.912499999999994
10
-26.887500000000003
20
68.912499999999923
42
-0.41421356237309503
10
-26.337500000000077
20
68.362499999999997
0
LWPOLYLINE
5
139
100
AcDbEntity
8
0
100
AcDbPolyline
90
8
70
1
43
0.0
10
-83.200000000000003
20
6.4500000000000002
10
-83.200000000000003
20
-6.4500000000000002
42
0.41421356237309503
10
-82.650000000000006
20
-6.9999999999999911
10
-69.750000000000099
20
-7.0000000000000684
42
0.41421356237309503
10
-69.200000000000003
20
-6.4500000000000002
10
-69.200000000000102
20
6.4500000000000002
42
0.41421356237309503
10
-69.750000000000099
20
6.9999999999999911
10
-82.650000000000006
20
6.9999999999999973
42
0.41421356237309503
0
LWPOLYLINE
5
140
100
AcDbEntity
8
0
100
AcDbPolyline
90
8
70
1
43
0.0
10
-6.4500000000000304
20
-6.9999999999999973
42
-0.41421356237309503
10
-7.0000000000000275
20
-6.4500000000000002
10
-7.0000000000000959
20
6.4500000000000002
42
-0.41421356237309503
10
-6.4500000000000988
20
6.9999999999999973
10
6.4499999999999611
20
6.9999999999999973
42
-0.41421356237309503
10
6.9999999999999583
20
6.4500000000000002
10
6.9999999999999583
20
-6.4500000000000002
42
-0.41421356237309503
10
6.4499999999999611
20
-6.9999999999999973
0
LWPOLYLINE
5
141
100
AcDbEntity
8
0
100
AcDbPolyline
90
8
70
1
43
0.0
10
-97.487500000000011
20
68.362499999999997
10
-97.487500000000011
20
55.462500000000006
42
0.41421356237309503
10
-96.937500000000014
20
54.912500000000009
10
-84.037500000000009
20
54.912500000000009
42
0.41421356237309503
10
-83.487500000000011
20
55.462500000000006
10
-83.487500000000011
20
68.362499999999997
42
0.41421356237309503
10
-84.037500000000009
20
68.912499999999994
10
-96.937500000000014
20
68.912499999999994
42
0.41421356237309503
0
LWPOLYLINE
5
142
100
AcDbEntity
8
0
100
AcDbPolyline
90
8
70
1
43
0.0
10
-35.024999999999899
20
35.862500000000004
42
-0.41421356237314705
10
-35.574999999999996
20
36.412500000000001
10
-35.575000000000031
20
49.3125
42
-0.41421356237309503
10
-35.024999999999999
20
49.86250000000004
10
-22.125
20
49.862499999999997
42
-0.41421356237309503
10
-21.575000000000003
20
49.3125
10
-21.575000000000003
20
36.412500000000001
42
-0.41421356237309503
10
-22.125
20
35.862500000000004
0
LWPOLYLINE
5
143
100
AcDbEntity
8
0
100
AcDbPolyline
90
8
70
1
43
0.0
10
-26.050000000000001
20
30.262500000000003
42
-0.41421356237309503
10
-25.500000000000004
20
30.8125
10
-12.6
20
30.8125
42
-0.41421356237309503
10
-12.050000000000002
20
30.262500000000003
10
-12.050000000000104
20
17.362500000000001
42
-0.41421356237309503
10
-12.600000000000101
20
16.812500000000004
10
-25.500000000000004
20
16.812499999999968
42
-0.41421356237309503
10
-26.050000000000036
20
17.362500000000001
0
LWPOLYLINE
5
144
100
AcDbEntity
8
0
100
AcDbPolyline
90
8
70
1
43
0.0
10
-107.84999999999999
20
30.812500000000004
10
-120.75000000000001
20
30.812500000000099
42
0.41421356237309503
10
-121.30000000000001
20
30.262500000000003
10
-121.30000000000011
20
17.362500000000001
42
0.41421356237304185
10
-120.75000000000001
20
16.8125
10
-107.84999999999999
20
16.812500000000032
42
0.41421356237304185
10
-107.30000000000001
20
17.362500000000001
10
-107.30000000000001
20
30.262500000000003
42
0.41421356237309503
0
LWPOLYLINE
5
145
100
AcDbEntity
8
0
100
AcDbPolyline
90
8
70
1
43
0.0
10
-136.42500000000001
20
7.0000000000000604
10
-149.32499999999999
20
7.0000000000000302
42
0.41421356237309503
10
-149.875
20
6.4500000000000313
10
-149.875
20
-6.4500000000000002
42
0.41421356237309503
10
-149.32499999999999
20
-6.9999999999999911
10
-136.42500000000001
20
-6.9999999999999973
42
0.41421356237309503
10
-135.875
20
-6.4500000000000002
10
-135.875
20
6.4500000000000002
42
0.41421356237311163
0
LWPOLYLINE
5
146
100
AcDbEntity
8
0
100
AcDbPolyline
90
8
70
1
43
0.0
10
-50.700000000000003
20
30.812500000000004
10
-63.600000000000001
20
30.812500000000004
42
0.41421356237309503
10
-64.150000000000006
20
30.262500000000003
10
-64.150000000000134
20
17.362500000000001
42
0.41421356237309503
10
-63.600000000000101
20
16.8125
10
-50.700000000000109
20
16.812500000000004
42
0.41421356237309503
10
-50.150000000000105
20
17.362500000000001
10
-50.150000000000006
20
30.262500000000003
42
0.41421356237309503
0
LWPOLYLINE
5
147
100
AcDbEntity
8
0
100
AcDbPolyline
90
8
70
1
43
0.0
10
-303.11250000000001
20
49.862499999999926
42
-0.41421356237309503
10
-302.56250000000011
20
49.3125
10
-302.5625
20
36.412500000000001
42
-0.41421356237304302
10
-303.11250000000001
20
35.862500000000068
10
-316.01249999999999
20
35.862500000000125
42
-0.41421356237314705
10
-316.56249999999977
20
36.412500000000001
10
-316.5625
20
49.312500000000099
42
-0.41421356237309503
10
-316.01249999999999
20
49.862500000000097
0
LWPOLYLINE
5
148
100
AcDbEntity
8
0
100
AcDbPolyline
90
8
70
1
43
0.0
10
-60.225000000000009
20
49.862499999999997
42
-0.41421356237309503
10
-59.675000000000011
20
49.3125
10
-59.675000000000011
20
36.412500000000001
42
-0.41421356237309503
10
-60.225000000000009
20
35.862500000000004
10
-73.125
20
35.862500000000004
42
-0.41421356237309503
10
-73.674999999999997
20
36.412500000000001
10
-73.674999999999997
20
49.3125
42
-0.41421356237309503
10
-73.125
20
49.862499999999997
0
LWPOLYLINE
5
149
100
AcDbEntity
8
0
100
AcDbPolyline
90
8
70
1
43
0.0
10
6.4500000000000322
20
30.8125
42
-0.41421356237309503
10
7.0000000000000293
20
30.262500000000003
10
6.9999999999999583
20
17.362500000000001
42
-0.41421356237309503
10
6.4499999999999611
20
16.812500000000004
10
-6.4500000000000304
20
16.812500000000004
42
-0.41421356237309503
10
-7.0000000000000275
20
17.362500000000001
10
-6.9999999999999565
20
30.262500000000003
42
-0.41421356237305718
10
-6.4500000000000304
20
30.8125
0
LWPOLYLINE
5
150
100
AcDbEntity
8
0
100
AcDbPolyline
90
8
70
1
43
0.0
10
-243.03125
20
74.512500000000003
10
-243.03125
20
87.412500000000094
42
0.41421356237315182
10
-243.58125000000001
20
87.962500000000119
10
-256.48124999999999
20
87.962500000000134
42
0.41421356237315182
10
-257.03125
20
87.412500000000094
10
-257.03124999999977
20
74.512500000000003
42
0.41421356237309503
10
-256.48124999999999
20
73.962500000000304
10
-243.58125000000001
20
73.962500000000034
42
0.41421356237304302
0
LWPOLYLINE
5
151
100
AcDbEntity
8
0
100
AcDbPolyline
90
8
70
1
43
0.0
10
-54.075000000000003
20
35.86250000000004
42
-0.41421356237309503
10
-54.624999999999972
20
36.412500000000001
10
-54.625
20
49.3125
42
-0.41421356237309503
10
-54.075000000000003
20
49.862499999999997
10
-41.174999999999997
20
49.862499999999997
42
-0.41421356237309503
10
-40.625
20
49.3125
10
-40.625
20
36.412500000000001
42
-0.41421356237309503
10
-41.174999999999997
20
35.862500000000004
0
LWPOLYLINE
5
152
100
AcDbEntity
8
0
100
AcDbPolyline
90
8
70
1
43
0.0
10
-335.0625
20
93.012500000000031
42
-0.41421356237309503
10
-335.61250000000007
20
93.562500000000099
10
-335.61250000000001
20
106.46250000000002
42
-0.41421356237309503
10
-335.0625
20
107.01250000000002
10
-322.16250000000002
20
107.01249999999995
42
-0.41421356237309503
10
-321.61250000000007
20
106.46250000000002
10
-321.61249999999995
20
93.562500000000099
42
-0.41421356237309503
10
-322.16250000000002
20
93.012500000000031
0
LWPOLYLINE
5
153
100
AcDbEntity
8
0
100
AcDbPolyline
90
8
70
1
43
0.0
10
-155.47499999999999
20
49.862500000000061
42
-0.41421356237314705
10
-154.92500000000004
20
49.3125
10
-154.92500000000001
20
36.412500000000001
42
-0.41421356237309503
10
-155.47499999999999
20
35.862500000000004
10
-168.37500000000003
20
35.862500000000004
42
-0.41421356237309503
10
-168.92500000000001
20
36.412500000000001
10
-168.92499999999995
20
49.3125
42
-0.41421356237314705
10
-168.37500000000003
20
49.862500000000026
0
LWPOLYLINE
5
154
100
AcDbEntity
8
0
100
AcDbPolyline
90
8
70
1
43
0.0
10
-63.600000000000101
20
-6.9999999999999973
42
-0.41421356237309503
10
-64.150000000000091
20
-6.4500000000000002
10
-64.150000000000091
20
6.4500000000000002
42
-0.41421356237309503
10
-63.600000000000101
20
6.9999999999999973
10
-50.700000000000109
20
6.9999999999999973
42
-0.41421356237309503
10
-50.150000000000112
20
6.4500000000000002
10
-50.150000000000112
20
-6.4500000000000002
42
-0.41421356237309503
10
-50.700000000000109
20
-6.9999999999999973
0
LWPOLYLINE
5
155
100
AcDbEntity
8
0
100
AcDbPolyline
90
8
70
1
43
0.0
10
-303.11250000000001
20
87.962500000000063
42
-0.41421356237298157
10
-302.56249999999994
20
87.412500000000207
10
-302.56249999999994
20
74.512500000000003
42
-0.41421356237304302
10
-303.11250000000001
20
73.962500000000034
10
-316.01249999999999
20
73.962500000000361
42
-0.41421356237309503
10
-316.56249999999966
20
74.512500000000003
10
-316.56250000000006
20
87.412500000000207
42
-0.41421356237309503
10
-316.01249999999999
20
87.962500000000276
0
LWPOLYLINE
5
156
100
AcDbEntity
8
0
100
AcDbPolyline
90
8
70
1
43
0.0
10
-140.63750000000002
20
55.462500000000006
42
-0.41421356237303358
10
-141.1875
20
54.912500000000108
10
-154.08750000000001
20
54.912500000000072
42
-0.41421356237304302
10
-154.63750000000005
20
55.462500000000006
10
-154.63750000000007
20
68.362499999999997
42
-0.41421356237309503
10
-154.08750000000001
20
68.912500000000065
10
-141.1875
20
68.912499999999994
42
-0.41421356237309503
10
-140.63750000000002
20
68.362499999999997
0
LWPOLYLINE
5
157
100
AcDbEntity
8
0
100
AcDbPolyline
90
8
70
1
43
0.0
10
-207.86250000000001
20
107.01250000000002
10
-220.76250000000002
20
107.01250000000002
42
0.41421356237309503
10
-221.3125
20
106.46250000000002
10
-221.31249999999994
20
93.562500000000099
42
0.41421356237309503
10
-220.76250000000002
20
93.012500000000102
10
-207.86250000000001
20
93.012500000000088
42
0.41421356237314239
10
-207.31250000000003
20
93.562500000000099
10
-207.31249999999994
20
106.46250000000002
42
0.41421356237309503
0
LWPOLYLINE
5
158
100
AcDbEntity
8
0
100
AcDbPolyline
90
8
70
1
43
0.0
10
-268.9375
20
106.46250000000002
10
-268.9375
20
93.562500000000099
42
0.41421356237314239
10
-268.38749999999999
20
93.012500000000102
10
-255.48750000000001
20
93.012500000000088
42
0.41421356237314239
10
-254.93750000000003
20
93.562500000000099
10
-254.93749999999994
20
106.46250000000002
42
0.41421356237309503
10
-255.48750000000001
20
107.01250000000002
10
-268.38749999999999
20
107.01250000000002
42
0.41421356237309503
0
LWPOLYLINE
5
159
100
AcDbEntity
8
0
100
AcDbPolyline
90
8
70
1
43
0.0
10
-302.5625
20
93.562500000000099
10
-302.5625
20
106.46250000000002
42
0.41421356237309503
10
-303.11250000000001
20
107.01250000000002
10
-316.01249999999999
20
107.01250000000016
42
0.41421356237309503
10
-316.5625
20
106.46250000000002
10
-316.56249999999994
20
93.562500000000099
42
0.41421356237314239
10
-316.01249999999999
20
93.012500000000102
10
-303.11250000000001
20
93.012500000000031
42
0.41421356237309503
0
LWPOLYLINE
5
160
100
AcDbEntity
8
0
100
AcDbPolyline
90
8
70
1
43
0.0
10
-302.5625
20
17.3625000000001
10
-302.5625
20
30.262500000000202
42
0.41421356237304069
10
-303.11250000000001
20
30.812500000000099
10
-316.01249999999999
20
30.812500000000107
42
0.41421356237304302
10
-316.5625
20
30.262500000000099
10
-316.56249999999994
20
17.3625000000001
42
0.41421356237309503
10
-316.01249999999999
20
16.812500000000199
10
-303.11250000000001
20
16.812500000000131
42
0.41421356237304185
0
LWPOLYLINE
5
161
100
AcDbEntity
8
0
100
AcDbPolyline
90
8
70
1
43
0.0
10
-335.0625
20
16.8125
10
-322.16250000000002
20
16.812500000000099
42
0.41421356237309503
10
-321.61250000000001
20
17.3625000000001
10
-321.61250000000007
20
30.262500000000099
42
0.41421356237309503
10
-322.16250000000002
20
30.812500000000004
10
-335.0625
20
30.812500000000096
42
0.41421356237309503
10
-335.61250000000001
20
30.262500000000099
10
-335.61249999999995
20
17.3625000000001
42
0.41421356237304185
0
LWPOLYLINE
5
162
100
AcDbEntity
8
0
100
AcDbPolyline
90
8
70
1
43
0.0
10
-69.75
20
30.812500000000004
10
-82.64999999999992
20
30.812500000000004
42
0.41421356237309503
10
-83.200000000000003
20
30.262500000000003
10
-83.200000000000003
20
17.362500000000001
42
0.41421356237309503
10
-82.650000000000006
20
16.8125
10
-69.750000000000099
20
16.812500000000004
42
0.41421356237309503
10
-69.200000000000102
20
17.362500000000001
10
-69.199999999999974
20
30.262500000000003
42
0.41421356237309503
0
LWPOLYLINE
5
163
100
AcDbEntity
8
0
100
AcDbPolyline
90
8
70
1
43
0.0
10
-303.11250000000001
20
7.0000000000000302
10
-316.01249999999999
20
7.0000000000001004
42
0.41421356237299867
10
-316.5625
20
6.4500000000000712
10
-316.56249999999989
20
-6.4500000000000002
42
0.41421356237309503
10
-316.01249999999999
20
-6.9999999999998508
10
-303.11250000000001
20
-6.9999999999999183
42
0.41421356237309559
10
-302.5625
20
-6.4499999999998492
10
-302.56249999999994
20
6.4499999999999602
42
0.41421356237309503
0
LWPOLYLINE
5
164
100
AcDbEntity
8
0
100
AcDbPolyline
90
8
70
1
43
0.0
10
-297.51249999999993
20
30.262500000000003
42
-0.41421356237314705
10
-296.96249999999998
20
30.81250000000006
10
-284.0625
20
30.812499999999929
42
-0.41421356237309503
10
-283.51250000000005
20
30.262500000000003
10
-283.51249999999999
20
17.3625000000001
42
-0.41421356237309503
10
-284.0625
20
16.812500000000103
10
-296.96249999999998
20
16.812499999999932
42
-0.41421356237314821
10
-297.51250000000005
20
17.3625000000001
0
LWPOLYLINE
5
165
100
AcDbEntity
8
0
100
AcDbPolyline
90
8
70
1
43
0.0
10
-297.51249999999999
20
106.46250000000002
10
-297.51249999999999
20
93.562500000000099
42
0.41421356237314239
10
-296.96249999999998
20
93.012500000000102
10
-284.0625
20
93.012500000000031
42
0.41421356237309503
10
-283.51249999999999
20
93.562500000000099
10
-283.51250000000005
20
106.46250000000002
42
0.41421356237309503
10
-284.0625
20
107.01250000000002
10
-296.96249999999998
20
107.01250000000002
42
0.41421356237309503
0
LWPOLYLINE
5
166
100
AcDbEntity
8
0
100
AcDbPolyline
90
8
70
1
43
0.0
10
-126.90000000000001
20
107.01250000000002
10
-139.80000000000001
20
107.01250000000002
42
0.41421356237309503
10
-140.34999999999999
20
106.46250000000002
10
-140.35000000000008
20
93.562500000000099
42
0.41421356237309503
10
-139.80000000000001
20
93.012500000000017
10
-126.90000000000001
20
93.012500000000031
42
0.41421356237309503
10
-126.34999999999999
20
93.562500000000099
10
-126.35000000000002
20
106.46250000000002
42
0.41421356237309503
0
LWPOLYLINE
5
167
100
AcDbEntity
8
0
100
AcDbPolyline
90
8
70
1
43
0.0
10
-130.27500000000001
20
-6.9999999999999973
42
-0.41421356237309503
10
-130.82500000000002
20
-6.4500000000000002
10
-130.82500000000002
20
6.4500000000000002
42
-0.41421356237311163
10
-130.27500000000001
20
7.0000000000000284
10
-117.375
20
7.0000000000000284
42
-0.41421356237309503
10
-116.82500000000002
20
6.4500000000000313
10
-116.82500000000002
20
-6.4500000000000002
42
-0.41421356237309503
10
-117.375
20
-6.9999999999999973
0
LWPOLYLINE
5
168
100
AcDbEntity
8
0
100
AcDbPolyline
90
8
70
1
43
0.0
10
-149.32499999999999
20
35.862499999999997
10
-136.42500000000001
20
35.862499999999997
42
0.41421356237309503
10
-135.875
20
36.412500000000001
10
-135.87500000000003
20
49.3125
42
0.41421356237309503
10
-136.42500000000001
20
49.862500000000097
10
-149.32499999999999
20
49.862500000000097
42
0.41421356237314705
10
-149.875
20
49.3125
10
-149.87500000000006
20
36.412500000000001
42
0.41421356237309503
0
LWPOLYLINE
5
169
100
AcDbEntity
8
0
100
AcDbPolyline
90
8
70
1
43
0.0
10
-261.24374999999998
20
54.912500000000037
42
-0.41421356237304302
10
-261.79375000000005
20
55.462500000000006
10
-261.79374999999999
20
68.362499999999997
42
-0.41421356237309503
10
-261.24374999999998
20
68.912499999999994
10
-248.34375
20
68.912500000000065
42
-0.41421356237309503
10
-247.79374999999993
20
68.362499999999997
10
-247.79375000000005
20
55.462500000000006
42
-0.41421356237309503
10
-248.34375
20
54.912500000000044
0
LWPOLYLINE
5
170
100
AcDbEntity
8
0
100
AcDbPolyline
90
8
70
1
43
0.0
10
-245.80574999999999
20
52.912500000000108
10
-239.90575000000004
20
52.9125000000002
42
0.41421356237309503
10
-239.35575
20
53.462500000000105
10
-239.35575000000003
20
67.362500000000097
42
0.41421356237309503
10
-239.90575000000004
20
67.912500000000094
10
-245.80574999999999
20
67.912500000000023
42
0.41421356237309503
10
-246.35575000000003
20
67.362500000000097
10
-246.35574999999994
20
53.462500000000105
42
0.41421356237314705
0
LWPOLYLINE
5
171
100
AcDbEntity
8
0
100
AcDbPolyline
90
8
70
1
43
0.0
10
-168.37500000000003
20
-6.9999999999999973
42
-0.41421356237313289
10
-168.92499999999995
20
-6.4500000000000002
10
-168.92500000000001
20
6.4500000000001396
42
-0.4142135623730584
10
-168.37500000000003
20
7.0000000000000684
10
-155.47499999999999
20
7.0000000000000284
42
-0.41421356237309503
10
-154.92500000000001
20
6.4500000000000313
10
-154.92500000000007
20
-6.4500000000000002
42
-0.41421356237309503
10
-155.47499999999999
20
-6.9999999999999263
0
LWPOLYLINE
5
172
100
AcDbEntity
8
0
100
AcDbPolyline
90
8
70
1
43
0.0
10
-283.51249999999999
20
36.412500000000001
10
-283.51249999999999
20
49.3125
42
0.41421356237314705
10
-284.0625
20
49.862500000000097
10
-296.96249999999998
20
49.862500000000068
42
0.41421356237304302
10
-297.51249999999999
20
49.312500000000099
10
-297.51250000000005
20
36.412500000000101
42
0.41421356237314705
10
-296.96249999999998
20
35.862499999999997
10
-284.0625
20
35.862500000000004
42
0.41421356237309503
0
LWPOLYLINE
5
173
100
AcDbEntity
8
0
100
AcDbPolyline
90
8
70
1
43
0.0
10
-79.275000000000006
20
49.862499999999969
42
-0.41421356237309503
10
-78.725000000000051
20
49.3125
10
-78.725000000000009
20
36.412500000000001
42
-0.41421356237309503
10
-79.275000000000006
20
35.862500000000004
10
-92.174999999999997
20
35.862500000000004
42
-0.41421356237309503
10
-92.724999999999994
20
36.412500000000001
10
-92.724999999999994
20
49.3125
42
-0.41421356237309503
10
-92.174999999999997
20
49.862499999999997
0
LWPOLYLINE
5
174
100
AcDbEntity
8
0
100
AcDbPolyline
90
8
70
1
43
0.0
10
-174.52500000000001
20
49.862500000000097
42
-0.41421356237314705
10
-173.97500000000002
20
49.3125
10
-173.97500000000005
20
36.412500000000001
42
-0.41421356237309503
10
-174.52500000000001
20
35.86250000000004
10
-187.42500000000004
20
35.862500000000075
42
-0.41421356237309503
10
-187.97499999999997
20
36.412500000000001
10
-187.97500000000002
20
49.3125
42
-0.41421356237314705
10
-187.42500000000004
20
49.862500000000097
0
LWPOLYLINE
5
175
100
AcDbEntity
8
0
100
AcDbPolyline
90
8
70
1
43
0.0
10
-187.55000000000001
20
106.0125
10
-193.44999999999999
20
106.0125
42
0.41421356237309503
10
-194.00000000000003
20
105.46250000000001
10
-193.99999999999991
20
91.5625
42
0.4142135623730383
10
-193.44999999999999
20
91.012500000000202
10
-187.55000000000001
20
91.012500000000074
42
0.41421356237315182
10
-187
20
91.562500000000114
10
-186.99999999999994
20
105.46250000000001
42
0.41421356237309503
0
LWPOLYLINE
5
176
100
AcDbEntity
8
0
100
AcDbPolyline
90
8
70
1
43
0.0
10
-254.93750000000009
20
36.412500000000001
42
-0.41421356237309503
10
-255.48750000000001
20
35.862500000000075
10
-268.38749999999999
20
35.862500000000104
42
-0.41421356237304302
10
-268.9375
20
36.412500000000001
10
-268.93749999999994
20
49.312500000000099
42
-0.41421356237309503
10
-268.38749999999999
20
49.862500000000026
10
-255.48750000000001
20
49.862500000000097
42
-0.41421356237314705
10
-254.93750000000003
20
49.3125
0
LWPOLYLINE
5
177
100
AcDbEntity
8
0
100
AcDbPolyline
90
8
70
1
43
0.0
10
-263.625
20
16.812500000000099
10
-250.72500000000002
20
16.8125
42
0.41421356237304185
10
-250.17500000000001
20
17.362500000000001
10
-250.17499999999995
20
30.262500000000003
42
0.41421356237309503
10
-250.72500000000002
20
30.812500000000099
10
-263.625
20
30.812500000000036
42
0.41421356237309503
10
-264.17500000000007
20
30.262500000000003
10
-264.17499999999995
20
17.362500000000001
42
0.41421356237309503
0
LWPOLYLINE
5
178
100
AcDbEntity
8
0
100
AcDbPolyline
90
8
70
1
43
0.0
10
-150.16249999999994
20
74.512500000000003
42
-0.41421356237304302
10
-150.71250000000001
20
73.962500000000034
10
-163.61250000000001
20
73.962500000000077
42
-0.41421356237309503
10
-164.16249999999994
20
74.512500000000003
10
-164.16250000000002
20
87.412500000000094
42
-0.41421356237309503
10
-163.61250000000001
20
87.962500000000091
10
-150.71250000000001
20
87.962500000000091
42
-0.41421356237309503
10
-150.16250000000002
20
87.412500000000094
0
LWPOLYLINE
5
179
100
AcDbEntity
8
0
100
AcDbPolyline
90
8
70
1
43
0.0
10
-54.912500000000009
20
74.512500000000003
10
-54.912500000000009
20
87.412500000000094
42
0.41421356237309503
10
-55.462500000000006
20
87.962500000000006
10
-68.362499999999997
20
87.96250000000002
42
0.41421356237309503
10
-68.912499999999895
20
87.412500000000094
10
-68.912499999999994
20
74.512500000000003
42
0.41421356237309503
10
-68.362499999999997
20
73.962500000000006
10
-55.462500000000006
20
73.962500000000077
42
0.41421356237309503
0
LWPOLYLINE
5
180
100
AcDbEntity
8
0
100
AcDbPolyline
90
8
70
1
43
0.0
10
-130.27500000000001
20
35.862499999999997
10
-117.375
20
35.862499999999997
42
0.41421356237304302
10
-116.82500000000002
20
36.412500000000001
10
-116.82500000000002
20
49.3125
42
0.41421356237314705
10
-117.375
20
49.862500000000097
10
-130.27500000000001
20
49.862500000000068
42
0.41421356237309503
10
-130.82499999999999
20
49.3125
10
-130.82500000000002
20
36.412500000000001
42
0.41421356237309503
0
LWPOLYLINE
5
181
100
AcDbEntity
8
0
100
AcDbPolyline
90
8
70
1
43
0.0
10
-235.05000000000001
20
-6.9999999999999973
42
-0.41421356237313761
10
-235.60000000000002
20
-6.4499999999999202
10
-235.60000000000008
20
6.4500000000000313
42
-0.41421356237307849
10
-235.05000000000001
20
7.0000000000000684
10
-222.15000000000003
20
7.0000000000001013
42
-0.41421356237311635
10
-221.60000000000008
20
6.4500000000001005
10
-221.59999999999997
20
-6.4499999999999202
42
-0.41421356237309503
10
-222.15000000000003
20
-6.9999999999999885
0
LWPOLYLINE
5
182
100
AcDbEntity
8
0
100
AcDbPolyline
90
8
70
1
43
0.0
10
-87.412499999999994
20
73.962500000000006
42
-0.41421356237309503
10
-87.962499999999991
20
74.512500000000003
10
-87.96249999999992
20
87.412500000000094
42
-0.41421356237309503
10
-87.412499999999994
20
87.96250000000002
10
-74.512500000000003
20
87.962500000000091
42
-0.41421356237309503
10
-73.962500000000006
20
87.412500000000094
10
-73.962500000000077
20
74.512500000000003
42
-0.41421356237309503
10
-74.512500000000003
20
73.962500000000077
0
LWPOLYLINE
5
183
100
AcDbEntity
8
0
100
AcDbPolyline
90
8
70
1
43
0.0
10
-116.53750000000001
20
68.362499999999997
10
-116.53750000000001
20
55.462500000000006
42
0.41421356237309503
10
-115.98750000000001
20
54.912500000000009
10
-103.08750000000002
20
54.912500000000115
42
0.41421356237309503
10
-102.53749999999999
20
55.462500000000006
10
-102.53750000000002
20
68.362499999999997
42
0.41421356237309503
10
-103.08750000000002
20
68.912499999999994
10
-115.98750000000001
20
68.912500000000065
42
0.41421356237309503
0
LWPOLYLINE
5
184
100
AcDbEntity
8
0
100
AcDbPolyline
90
8
70
1
43
0.0
10
-187.97499999999999
20
6.4500000000000313
10
-187.97499999999999
20
-6.4500000000000002
42
0.41421356237309503
10
-187.42500000000004
20
-6.9999999999999911
10
-174.52500000000001
20
-6.9999999999999973
42
0.41421356237309503
10
-173.97500000000002
20
-6.4500000000000712
10
-173.97500000000008
20
6.4500000000000313
42
0.41421356237311635
10
-174.52500000000001
20
6.9999999999999911
10
-187.42500000000004
20
7.0000000000001688
42
0.41421356237313173
0
LWPOLYLINE
5
185
100
AcDbEntity
8
0
100
AcDbPolyline
90
8
70
1
43
0.0
10
-202.26249999999999
20
87.412500000000094
10
-202.26249999999999
20
74.512500000000003
42
0.41421356237309503
10
-201.71250000000001
20
73.962500000000105
10
-188.8125
20
73.962500000000034
42
0.41421356237304302
10
-188.26249999999999
20
74.512500000000003
10
-188.26249999999993
20
87.412500000000094
42
0.41421356237309503
10
-188.8125
20
87.962500000000006
10
-201.71250000000001
20
87.962500000000091
42
0.41421356237309503
0
LWPOLYLINE
5
186
100
AcDbEntity
8
0
100
AcDbPolyline
90
8
70
1
43
0.0
10
-183.5
20
17.362500000000001
42
-0.41421356237309503
10
-184.05000000000001
20
16.812500000000004
10
-196.94999999999999
20
16.812500000000075
42
-0.41421356237314821
10
-197.49999999999994
20
17.3625000000001
10
-197.49999999999997
20
30.262500000000003
42
-0.41421356237314705
10
-196.94999999999999
20
30.81250000000006
10
-184.05000000000001
20
30.812499999999929
42
-0.41421356237309503
10
-183.50000000000009
20
30.262500000000003
0
LWPOLYLINE
5
187
100
AcDbEntity
8
0
100
AcDbPolyline
90
8
70
1
43
0.0
10
-77.887500000000003
20
54.912500000000009
10
-64.987499999999997
20
54.912500000000009
42
0.41421356237309503
10
-64.4375
20
55.462500000000006
10
-64.4375
20
68.362499999999997
42
0.41421356237309503
10
-64.987499999999997
20
68.912499999999994
10
-77.887500000000003
20
68.912499999999994
42
0.41421356237309503
10
-78.4375
20
68.362499999999997
10
-78.4375
20
55.462500000000006
42
0.41421356237309503
0
LWPOLYLINE
5
188
100
AcDbEntity
8
0
100
AcDbPolyline
90
8
70
1
43
0.0
10
-31.100000000000104
20
17.362500000000001
42
-0.41421356237309503
10
-31.650000000000102
20
16.812500000000004
10
-44.550000000000097
20
16.812500000000039
42
-0.41421356237309503
10
-45.100000000000058
20
17.362500000000001
10
-45.099999999999994
20
30.262500000000003
42
-0.41421356237309503
10
-44.549999999999997
20
30.8125
10
-31.649999999999999
20
30.8125
42
-0.41421356237309503
10
-31.100000000000001
20
30.262500000000003
0
LWPOLYLINE
5
189
100
AcDbEntity
8
0
100
AcDbPolyline
90
8
70
1
43
0.0
10
2.2375000000000309
20
93.562500000000099
10
2.2375000000000309
20
106.46250000000002
42
0.41421356237309476
10
1.6875000000000306
20
107.01250000000002
10
-11.2125
20
107.01250000000002
42
0.41421356237309503
10
-11.762499999999999
20
106.46250000000002
10
-11.762499999999998
20
93.562500000000014
42
0.41421356237309503
10
-11.2125
20
93.012500000000017
10
1.6874999999999614
20
93.012500000000017
42
0.41421356237317958
0
LWPOLYLINE
5
190
100
AcDbEntity
8
0
100
AcDbPolyline
90
8
70
1
43
0.0
10
-241.04325000000003
20
74.962500000000034
42
-0.41421356237309503
10
-241.5932500000001
20
75.512500000000102
10
-241.5932500000001
20
89.412500000000094
42
-0.41421356237309503
10
-241.04325000000003
20
89.962500000000162
10
-235.14324999999999
20
89.962500000000091
42
-0.41421356237309503
10
-234.59325000000001
20
89.412500000000094
10
-234.59324999999993
20
75.512500000000102
42
-0.41421356237309503
10
-235.14324999999999
20
74.962500000000034
0
LWPOLYLINE
5
191
100
AcDbEntity
8
0
100
AcDbPolyline
90
8
70
1
43
0.0
10
-221.3125
20
87.412500000000207
10
-221.3125
20
74.512500000000003
42
0.41421356237309503
10
-220.76250000000002
20
73.962500000000006
10
-207.86250000000001
20
73.962500000000006
42
0.41421356237309503
10
-207.31250000000003
20
74.512500000000003
10
-207.31249999999994
20
87.412500000000094
42
0.41421356237309503
10
-207.86250000000001
20
87.962500000000006
10
-220.76250000000002
20
87.962500000000162
42
0.4142135623730383
0
LWPOLYLINE
5
192
100
AcDbEntity
8
0
100
AcDbPolyline
90
8
70
1
43
0.0
10
-203.10000000000002
20
6.9999999999999911
10
-216
20
7.0000000000000604
42
0.41421356237313173
10
-216.55000000000001
20
6.4500000000000712
10
-216.54999999999995
20
-6.4500000000000002
42
0.41421356237313289
10
-216
20
-6.9999999999999911
10
-203.10000000000002
20
-6.9999999999999973
42
0.41421356237313289
10
-202.55000000000001
20
-6.4500000000000002
10
-202.54999999999995
20
6.4500000000000313
42
0.41421356237307849
0
LWPOLYLINE
5
193
100
AcDbEntity
8
0
100
AcDbPolyline
90
8
70
1
43
0.0
10
-145.94999999999999
20
30.8125
42
-0.41421356237309503
10
-145.39999999999998
20
30.262500000000003
10
-145.39999999999998
20
17.362500000000001
42
-0.41421356237309503
10
-145.94999999999999
20
16.812500000000004
10
-158.84999999999999
20
16.812500000000004
42
-0.41421356237309503
10
-159.40000000000001
20
17.362500000000001
10
-159.40000000000001
20
30.262500000000003
42
-0.41421356237309503
10
-158.84999999999999
20
30.8125
0
LWPOLYLINE
5
194
100
AcDbEntity
8
0
100
AcDbPolyline
90
8
70
1
43
0.0
10
-112.0625
20
74.512500000000003
10
-112.0625
20
87.412500000000094
42
0.41421356237309503
10
-112.61250000000001
20
87.962500000000119
10
-125.51250000000002
20
87.962500000000162
42
0.41421356237309503
10
-126.06250000000001
20
87.412500000000094
10
-126.06250000000001
20
74.512500000000003
42
0.41421356237309503
10
-125.51250000000002
20
73.962500000000105
10
-112.61250000000001
20
73.962500000000006
42
0.41421356237309503
0
CIRCLE
5
195
100
AcDbEntity
8
0
100
AcDbCircle
10
-153.35250854492
20
100.01251602170001
30
-2.2204460492503131e-15
40
1.5249999999999999
210
0
220
0
230
1
0
LWPOLYLINE
5
196
100
AcDbEntity
8
0
100
AcDbPolyline
90
106
70
1
43
0.0
10
-34.200609665441
20
113.71850000000001
42
-0.19891236737959245
10
-33.175304832720755
20
113.29380483272075
10
-30.026753429037885
20
110.14525342903802
42
0.19891236737966664
10
-28.5595068580758
20
109.53749999999999
10
8.4500000000000615
20
109.53749999999994
42
-0.41421356237309959
10
9.525000000000011
20
108.46250000000001
10
9.5249999999999417
20
-8.4500000000000206
42
-0.41421356237311291
10
8.4499999999999211
20
-9.5249999999999702
10
-13.753006858075899
20
-9.5249999999999417
42
0.19891236737965415
10
-15.2202534290379
20
-10.1327534290379
10
-18.887804832720558
20
-13.800304832720546
42
-0.19891236737964496
10
-19.913109665440999
20
-14.225000000000001
10
-21.812500000000099
20
-14.224999999999994
42
-0.41421356237309764
10
-22.312500000000099
20
-13.725000000000001
10
-22.312500000000107
20
-11.025
42
0.99999999999999989
10
-25.312500000000103
20
-11.025
10
-25.3125
20
-13.725000000000101
42
-0.41421356237303519
10
-25.812500000000004
20
-14.225000000000001
10
-27.711890334559005
20
-14.225000000000012
42
-0.19891236737967646
10
-28.737195167279602
20
-13.800304832720499
10
-32.404746570962132
20
-10.13275342903793
42
0.19891236737965862
10
-33.871993141924207
20
-9.5250000000000199
10
-99.4780068580761
20
-9.5250000000000394
42
0.19891236737963619
10
-100.945253429038
20
-10.1327534290379
10
-104.61280483272076
20
-13.800304832720734
42
-0.19891236737959267
10
-105.63810966544099
20
-14.225000000000001
10
-107.53749999999999
20
-14.225000000000122
42
-0.41421356237314183
10
-108.03750000000001
20
-13.725000000000001
10
-108.03750000000001
20
-11.025
42
0.99999999999999989
10
-111.03749999999999
20
-11.025
10
-111.03749999999999
20
-13.725000000000001
42
-0.41421356237311063
10
-111.53750000000001
20
-14.225000000000001
10
-113.43689033455901
20
-14.225000000000353
42
-0.19891236737971282
10
-114.46219516728
20
-13.800304832720499
10
-118.12974657096197
20
-10.132753429037866
42
0.19891236737965842
10
-119.596993141924
20
-9.5250000000000021
10
-185.20300685807601
20
-9.5250000000000394
42
0.19891236737965862
10
-186.67025342903801
20
-10.132753429038001
10
-190.33780483272025
20
-13.800304832720261
42
-0.19891236737970486
10
-191.36310966544099
20
-14.225000000000001
10
-193.26250000000002
20
-14.224999999999975
42
-0.41421356237309631
10
-193.76249999999999
20
-13.725000000000001
10
-193.7625000000001
20
-11.025
42
0.99999999999999989
10
-196.76249999999999
20
-11.0250000000001
10
-196.76249999999999
20
-13.725000000000101
42
-0.41421356237306639
10
-197.26249999999999
20
-14.225000000000001
10
-199.16189033455902
20
-14.225000000000303
42
-0.19891236737973705
10
-200.18719516728001
20
-13.8003048327204
10
-203.85474657096199
20
-10.132753429037901
42
0.19891236737965842
10
-205.321993141924
20
-9.5249999999999702
10
-309.02800685807608
20
-9.525000000000011
42
0.1989123673796519
10
-310.49525342903797
20
-10.1327534290379
10
-314.16280483272027
20
-13.800304832720107
42
-0.19891236737970946
10
-315.188109665441
20
-14.224999999999902
10
-317.08749999999998
20
-14.225000000000099
42
-0.4142135623732654
10
-317.58749999999998
20
-13.724999999999801
10
-317.58749999999992
20
-11.024999999999901
42
0.99999999999999989
10
-320.58749999999998
20
-11.024999999999901
10
-320.5875000000002
20
-13.724999999999801
42
-0.41421356237320817
10
-321.08749999999998
20
-14.224999999999801
10
-322.98689033455901
20
-14.224999999999529
42
-0.19891236737956058
10
-324.012195167279
20
-13.8003048327204
10
-327.67974657096192
20
-10.132753429037709
42
0.19891236737963894
10
-329.14699314192399
20
-9.5249999999999009
10
-337.06250000000006
20
-9.5250000000000448
42
-0.41421356237313495
10
-338.13749999999999
20
-8.4499999999999531
10
-338.13750000000005
20
108.46250000000001
42
-0.41421356237308532
10
-337.06250000000006
20
109.53749999999999
10
-309.57799314192403
20
109.53749999999984
42
0.19891236737965801
10
-308.11074657096202
20
110.14525342903801
10
-304.96219516727956
20
113.29380483272047
42
-0.19891236737969781
10
-303.936890334559
20
113.71850000000002
10
-302.03750000000002
20
113.71849999999998
42
-0.41421356237311585
10
-301.53750000000002
20
113.21850000000001
10
-301.53750000000008
20
111.03749999999999
42
0.99999999999999989
10
-298.53750000000002
20
111.03749999999999
10
-298.53750000000008
20
113.21850000000001
42
-0.41421356237311585
10
-298.03750000000002
20
113.71850000000002
10
-296.13810966544099
20
113.71850000000069
42
-0.19891236737966214
10
-295.11280483271997
20
113.29380483272101
10
-291.96425342903819
20
110.14525342903782
42
0.19891236737965803
10
-290.49700685807602
20
109.53749999999999
10
-214.32799314192403
20
109.53750000000012
42
0.19891236737965803
10
-212.86074657096202
20
110.14525342903801
10
-209.7121951672795
20
113.29380483272053
42
-0.19891236737966214
10
-208.686890334559
20
113.71850000000002
10
-206.78750000000002
20
113.71850000000001
42
-0.4142135623730846
10
-206.28749999999999
20
113.21850000000001
10
-206.28750000000008
20
111.03749999999999
42
0.99999999999999989
10
-203.28749999999999
20
111.03749999999999
10
-203.28750000000008
20
113.21850000000001
42
-0.41421356237312623
10
-202.78750000000002
20
113.71850000000002
10
-200.88810966544102
20
113.71850000000003
42
-0.19891236737954951
10
-199.862804832721
20
113.29380483272101
10
-196.714253429038
20
110.14525342903804
42
0.17702911433689478
10
-195.422224562677
20
109.54491112500702
10
-47.640493141924203
20
109.53749999999998
42
0.19891236737966306
10
-46.173246570962107
20
110.14525342903801
10
-43.024695167279262
20
113.29380483272075
42
-0.19891236737959314
10
-41.99939033455901
20
113.71850000000002
10
-40.100000000000009
20
113.71850000000012
42
-0.4142135623730534
10
-39.600000000000001
20
113.21850000000001
10
-39.599999999999994
20
111.03749999999999
42
0.99999999999999989
10
-36.600000000000001
20
111.03749999999999
10
-36.599999999999923
20
113.21850000000001
42
-0.41421356237310025
10
-36.099999999999909
20
113.71850000000002
0
CIRCLE
5
197
100
AcDbEntity
8
0
100
AcDbCircle
10
-153.35250854492
20
100.01251602170001
30
0
40
1.5249999999999999
210
0
220
0
230
1
0
LWPOLYLINE
5
198
100
AcDbEntity
8
0
100
AcDbPolyline
90
8
70
1
43
0.0
10
-266.16300000000001
20
32.8125
10
-272.06299999999999
20
32.8125
42
0.41421356237312101
10
-272.613
20
32.262500000000003
10
-272.61299999999994
20
18.3625000000001
42
0.41421356237314705
10
-272.06299999999999
20
17.812500000000099
10
-266.16300000000001
20
17.812500000000032
42
0.4142135623730927
10
-265.61300000000006
20
18.3625000000001
10
-265.61300000000006
20
32.262500000000102
42
0.41421356237304541
0
LWPOLYLINE
5
199
100
AcDbEntity
8
0
100
AcDbPolyline
90
8
70
1
43
0.0
10
-131.11250000000001
20
74.512500000000003
10
-131.11250000000001
20
87.412500000000094
42
0.41421356237307611
10
-131.66249999999999
20
87.962500000000119
10
-144.5625
20
87.962500000000091
42
0.4142135623730856
10
-145.11250000000001
20
87.412500000000094
10
-145.11249999999993
20
74.512500000000003
42
0.41421356237308082
10
-144.5625
20
73.962500000000105
10
-131.66249999999999
20
73.962500000000034
42
0.41421356237304302
0
LWPOLYLINE
5
200
100
AcDbEntity
8
0
100
AcDbPolyline
90
8
70
1
43
0.0
10
-206.47500000000002
20
35.862499999999997
10
-193.57500000000002
20
35.862499999999997
42
0.41421356237309037
10
-193.02500000000003
20
36.412500000000001
10
-193.02500000000009
20
49.3125
42
0.41421356237312346
10
-193.57500000000002
20
49.862499999999997
10
-206.47500000000002
20
49.862500000000026
42
0.41421356237312346
10
-207.02500000000001
20
49.3125
10
-207.02499999999998
20
36.412500000000001
42
0.41421356237307377
0
LWPOLYLINE
5
201
100
AcDbEntity
8
0
100
AcDbPolyline
90
8
70
1
43
0.0
10
-44.550000000000097
20
-6.9999999999999911
10
-31.650000000000102
20
-6.9999999999999911
42
0.41421356237309803
10
-31.100000000000101
20
-6.4500000000000002
10
-31.100000000000104
20
6.4500000000000002
42
0.41421356237309803
10
-31.650000000000102
20
6.9999999999999911
10
-44.550000000000097
20
6.9999999999999973
42
0.41421356237308676
10
-45.100000000000108
20
6.4500000000000002
10
-45.100000000000094
20
-6.4500000000000002
42
0.41421356237308676
0
LWPOLYLINE
5
202
100
AcDbEntity
8
0
100
AcDbPolyline
90
8
70
1
43
0.0
10
-225.52500000000003
20
35.862500000000082
42
-0.41421356237309037
10
-226.07499999999993
20
36.412500000000001
10
-226.07500000000002
20
49.3125
42
-0.41421356237321327
10
-225.52500000000003
20
49.862500000000097
10
-212.62500000000003
20
49.862500000000054
42
-0.41421356237312346
10
-212.0750000000001
20
49.3125
10
-212.07500000000005
20
36.412500000000001
42
-0.41421356237312579
10
-212.62500000000003
20
35.862500000000004
0
LWPOLYLINE
5
203
100
AcDbEntity
8
0
100
AcDbPolyline
90
8
70
1
43
0.0
10
-93.012500000000017
20
74.512500000000003
10
-93.012500000000017
20
87.412500000000094
42
0.41421356237312346
10
-93.562500000000099
20
87.962500000000006
10
-106.46250000000002
20
87.962500000000091
42
0.4142135623730856
10
-107.01250000000002
20
87.412500000000094
10
-107.01250000000002
20
74.512500000000003
42
0.4142135623730856
10
-106.46250000000002
20
73.962500000000105
10
-93.562500000000014
20
73.962500000000006
42
0.41421356237307611
0
LWPOLYLINE
5
204
100
AcDbEntity
8
0
100
AcDbPolyline
90
8
70
1
43
0.0
10
-5.4562500000000114
20
87.962500000000006
10
-18.356250000000102
20
87.962500000000006
42
0.41421356237302531
10
-18.906249999999901
20
87.412500000000094
10
-18.906249999999996
20
74.512500000000003
42
0.41421356237308676
10
-18.356249999999999
20
73.962500000000105
10
-5.4562500000000096
20
73.962500000000077
42
0.41421356237310092
10
-4.9062500000000089
20
74.512500000000003
10
-4.9062500000000124
20
87.412500000000094
42
0.41421356237308321
0
LWPOLYLINE
5
205
100
AcDbEntity
8
0
100
AcDbPolyline
90
8
70
1
43
0.0
10
-245.12500000000003
20
49.3125
10
-245.12500000000003
20
36.412500000000001
42
0.41421356237303592
10
-244.57499999999999
20
35.862499999999997
10
-231.67500000000004
20
35.862500000000075
42
0.41421356237309037
10
-231.125
20
36.412500000000001
10
-231.12500000000009
20
49.312500000000099
42
0.41421356237309503
10
-231.67500000000004
20
49.862500000000097
10
-244.57499999999999
20
49.862499999999926
42
0.4142135623730856
0
LWPOLYLINE
5
206
100
AcDbEntity
8
0
100
AcDbPolyline
90
8
70
1
43
0.0
10
-169.21249999999992
20
74.512500000000102
42
-0.41421356237309503
10
-169.76249999999999
20
73.962500000000034
10
-182.66249999999999
20
73.962500000000091
42
-0.41421356237309037
10
-183.21249999999992
20
74.512500000000003
10
-183.21249999999998
20
87.412500000000094
42
-0.41421356237309503
10
-182.66249999999999
20
87.962500000000091
10
-169.76249999999999
20
87.962500000000034
42
-0.41421356237306667
10
-169.21250000000009
20
87.412500000000094
0
LWPOLYLINE
5
207
100
AcDbEntity
8
0
100
AcDbPolyline
90
8
70
1
43
0.0
10
-20.89425
20
89.96250000000002
10
-26.794249999999899
20
89.96250000000002
42
0.41421356237308321
10
-27.344249999999903
20
89.412500000000094
10
-27.344249999999999
20
75.512500000000102
42
0.41421356237315654
10
-26.794250000000002
20
74.962500000000006
10
-20.89425
20
74.962500000000105
42
0.41421356237308793
10
-20.344250000000002
20
75.512500000000102
10
-20.344250000000073
20
89.412500000000094
42
0.41421356237308082
0
LWPOLYLINE
5
208
100
AcDbEntity
8
0
100
AcDbPolyline
90
8
70
1
43
0.0
10
-273.69999999999999
20
6.4500000000000712
42
-0.41421356237309326
10
-273.14999999999998
20
7.0000000000000329
10
-260.25
20
6.999999999999944
42
-0.41421356237308793
10
-259.7000000000001
20
6.4500000000000313
10
-259.70000000000005
20
-6.4499999999999202
42
-0.41421356237308909
10
-260.25
20
-6.9999999999998472
10
-273.14999999999998
20
-6.9999999999999174
42
-0.41421356237309442
10
-273.70000000000005
20
-6.4499999999998501
0
LWPOLYLINE
5
209
100
AcDbEntity
8
0
100
AcDbPolyline
90
8
70
1
43
0.0
10
-160.23750000000004
20
68.912499999999994
10
-173.13749999999999
20
68.912499999999994
42
0.4142135623730856
10
-173.68750000000003
20
68.362499999999997
10
-173.68750000000006
20
55.462500000000006
42
0.4142135623730383
10
-173.13749999999999
20
54.912500000000108
10
-160.23750000000004
20
54.912500000000044
42
0.41421356237312346
10
-159.6875
20
55.462500000000006
10
-159.68750000000003
20
68.362499999999997
42
0.4142135623730856
0
LWPOLYLINE
5
210
100
AcDbEntity
8
0
100
AcDbPolyline
90
8
70
1
43
0.0
10
-121.58750000000001
20
55.462500000000006
10
-121.58750000000001
20
68.362499999999997
42
0.4142135623730856
10
-122.13750000000002
20
68.912499999999994
10
-135.03749999999999
20
68.912499999999994
42
0.4142135623730856
10
-135.58750000000001
20
68.362499999999997
10
-135.58749999999998
20
55.462500000000006
42
0.41421356237310919
10
-135.03749999999999
20
54.912500000000009
10
-122.13749999999999
20
54.912500000000037
42
0.41421356237300044
0
LWPOLYLINE
5
211
100
AcDbEntity
8
0
100
AcDbPolyline
90
8
70
1
43
0.0
10
-198.33750000000003
20
68.912499999999909
42
-0.4142135623730856
10
-197.78750000000008
20
68.362499999999997
10
-197.78750000000005
20
55.462500000000006
42
-0.41421356237309503
10
-198.33750000000003
20
54.912500000000044
10
-211.23750000000001
20
54.912499999999937
42
-0.41421356237309503
10
-211.78750000000008
20
55.462500000000006
10
-211.78750000000002
20
68.362499999999997
42
-0.41421356237310453
10
-211.23750000000001
20
68.912499999999994
0
LWPOLYLINE
5
212
100
AcDbEntity
8
0
100
AcDbPolyline
90
8
70
1
43
0.0
10
-11.762499999999999
20
49.3125
10
-11.762499999999999
20
36.412500000000001
42
0.4142135623730962
10
-11.2125
20
35.862499999999997
10
1.6875000000000311
20
35.862500000000004
42
0.4142135623730952
10
2.2375000000000309
20
36.412500000000001
10
2.2375000000000282
20
49.3125
42
0.41421356237308676
10
1.6875000000000306
20
49.862499999999997
10
-11.2125
20
49.862499999999997
42
0.41421356237308676
0
LWPOLYLINE
5
213
100
AcDbEntity
8
0
100
AcDbPolyline
90
8
70
1
43
0.0
10
-235.05000000000001
20
16.812500000000078
42
-0.41421356237308909
10
-235.60000000000005
20
17.3625000000001
10
-235.60000000000008
20
30.262500000000003
42
-0.4142135623730927
10
-235.05000000000001
20
30.812500000000071
10
-222.15000000000003
20
30.812500000000064
42
-0.41421356237314949
10
-221.60000000000008
20
30.262500000000003
10
-221.60000000000014
20
17.3625000000001
42
-0.41421356237312223
10
-222.15000000000003
20
16.812500000000075
0
LWPOLYLINE
5
214
100
AcDbEntity
8
0
100
AcDbPolyline
90
8
70
1
43
0.0
10
-265.46924999999999
20
89.412500000000094
42
-0.41421356237309503
10
-264.91924999999998
20
89.962500000000091
10
-259.01925000000006
20
89.962500000000034
42
-0.41421356237306667
10
-258.4692500000001
20
89.412500000000094
10
-258.46924999999999
20
75.512500000000102
42
-0.41421356237307611
10
-259.01925
20
74.962500000000034
10
-264.91924999999998
20
74.962500000000006
42
-0.41421356237307611
10
-265.46925000000005
20
75.512500000000102
0
LWPOLYLINE
5
215
100
AcDbEntity
8
0
100
AcDbPolyline
90
8
70
1
43
0.0
10
-240.65000000000001
20
-6.4499999999999202
42
-0.41421356237310508
10
-241.20000000000002
20
-6.9999999999999973
10
-254.09999999999999
20
-6.9999999999999529
42
-0.41421356237307555
10
-254.65000000000006
20
-6.4499999999998501
10
-254.65000000000001
20
6.4500000000000304
42
-0.41421356237312756
10
-254.09999999999999
20
7.0000000000000284
10
-241.20000000000002
20
7.0000000000000329
42
-0.41421356237307611
10
-240.65000000000009
20
6.4500000000000712
0
LWPOLYLINE
5
216
100
AcDbEntity
8
0
100
AcDbPolyline
90
8
70
1
43
0.0
10
4.6187500000000616
20
55.462499999794908
10
4.6187500000000616
20
68.362499999794906
42
0.41421356237308643
10
4.0687500000000707
20
68.912499999794903
10
-8.8312499999999297
20
68.912499999794903
42
0.41421356237308676
10
-9.3812499999999197
20
68.362499999794906
10
-9.3812499999999268
20
55.462499999794908
42
0.41421356237308676
10
-8.8312499999999297
20
54.91249999979491
10
4.0687500000000707
20
54.91249999979491
42
0.41421356237308643
0
LWPOLYLINE
5
217
100
AcDbEntity
8
0
100
AcDbPolyline
90
8
70
1
43
0.0
10
-177.89999999999998
20
16.812500000000057
42
-0.41421356237314239
10
-178.44999999999999
20
17.362500000000001
10
-178.44999999999996
20
30.262500000000003
42
-0.41421356237319906
10
-177.90000000000003
20
30.812500000000128
10
-165
20
30.812499999999986
42
-0.41421356237312579
10
-164.44999999999999
20
30.262500000000003
10
-164.4500000000001
20
17.3625000000001
42
-0.41421356237312223
10
-165
20
16.812500000000075
0
LWPOLYLINE
5
218
100
AcDbEntity
8
0
100
AcDbPolyline
90
8
70
1
43
0.0
10
3.5317500000000015
20
75.512500000000102
10
3.5317500000000015
20
89.412500000000094
42
0.41421356237307966
10
2.9817500000000106
20
89.96250000000002
10
-2.9182499999999587
20
89.962500000000091
42
0.41421356237308177
10
-3.4682499999999497
20
89.412500000000094
10
-3.4682500000000269
20
75.512500000000102
42
0.41421356237309442
10
-2.9182499999999583
20
74.962500000000006
10
2.9817500000000114
20
74.962500000000105
42
0.41421356237308621
0
LWPOLYLINE
5
219
100
AcDbEntity
8
0
100
AcDbPolyline
90
8
70
1
43
0.0
10
-270.23174999999998
20
67.362500000000097
10
-270.23174999999998
20
53.462500000000006
42
0.41421356237309503
10
-269.68175000000002
20
52.912500000000108
10
-263.78174999999999
20
52.912500000000009
42
0.41421356237321327
10
-263.23174999999998
20
53.462500000000105
10
-263.23174999999992
20
67.362500000000097
42
0.41421356237309503
10
-263.78174999999999
20
67.912500000000193
10
-269.68175000000002
20
67.912500000000094
42
0.41421356237310453
0
LWPOLYLINE
5
220
100
AcDbEntity
8
0
100
AcDbPolyline
90
8
70
1
43
0.0
10
-58.837499999999999
20
54.912500000000009
10
-45.9375
20
54.912500000000009
42
0.41421356237307611
10
-45.387500000000003
20
55.462500000000006
10
-45.387500000000003
20
68.362499999999997
42
0.41421356237307611
10
-45.9375
20
68.912499999999994
10
-58.837500000000098
20
68.912499999999994
42
0.41421356237305251
10
-59.387500000000003
20
68.362499999999997
10
-59.387499999999996
20
55.462500000000006
42
0.41421356237307611
0
LWPOLYLINE
5
221
100
AcDbEntity
8
0
100
AcDbPolyline
90
8
70
1
43
0.0
10
-242.28700000000003
20
32.812500000000099
10
-248.18700000000004
20
32.812500000000099
42
0.41421356237304069
10
-248.73699999999999
20
32.262500000000102
10
-248.73700000000002
20
18.3625000000001
42
0.41421356237312695
10
-248.18700000000004
20
17.812500000000099
10
-242.28700000000003
20
17.812500000000032
42
0.4142135623730927
10
-241.73699999999999
20
18.3625000000001
10
-241.73699999999994
20
32.262500000000102
42
0.41421356237307144
0
LWPOLYLINE
5
222
100
AcDbEntity
8
0
100
AcDbPolyline
90
8
70
1
43
0.0
10
-79.699999999999903
20
105.46250000000001
10
-79.699999999999903
20
91.5625
42
0.4142135623730856
10
-79.149999999999906
20
91.012500000000003
10
-73.25
20
91.012500000000074
42
0.41421356237308082
10
-72.700000000000003
20
91.5625
10
-72.700000000000003
20
105.46250000000001
42
0.4142135623730856
10
-73.25
20
106.0125
10
-79.149999999999906
20
106.01250000000007
42
0.41421356237309503
0
LWPOLYLINE
5
223
100
AcDbEntity
8
0
100
AcDbPolyline
90
8
70
1
43
0.0
10
-88.250000000000099
20
-6.4500000000000002
42
-0.41421356237309154
10
-88.800000000000097
20
-6.9999999999999973
10
-101.70000000000002
20
-6.9999999999999911
42
-0.41421356237309154
10
-102.25000000000001
20
-6.4500000000000002
10
-102.25000000000001
20
6.4500000000000313
42
-0.41421356237309154
10
-101.70000000000002
20
7.0000000000000284
10
-88.800000000000097
20
6.9999999999999973
42
-0.41421356237309503
10
-88.250000000000142
20
6.4500000000000002
0
LWPOLYLINE
5
224
100
AcDbEntity
8
0
100
AcDbPolyline
90
8
70
1
43
0.0
10
-179.28750000000002
20
68.912500000000065
42
-0.41421356237309503
10
-178.73749999999995
20
68.362499999999997
10
-178.73750000000001
20
55.462500000000006
42
-0.41421356237310453
10
-179.28750000000002
20
54.912500000000009
10
-192.1875
20
54.912500000000094
42
-0.4142135623730856
10
-192.73749999999993
20
55.462500000000006
10
-192.73750000000001
20
68.362499999999997
42
-0.41421356237310453
10
-192.1875
20
68.912499999999994
0
LWPOLYLINE
5
225
100
AcDbEntity
8
0
100
AcDbPolyline
90
8
70
1
43
0.0
10
-140.34999999999999
20
30.262500000000099
10
-140.34999999999999
20
17.362500000000001
42
0.41421356237304069
10
-139.80000000000001
20
16.8125
10
-126.90000000000001
20
16.812500000000103
42
0.41421356237309154
10
-126.34999999999999
20
17.3625000000001
10
-126.34999999999998
20
30.262500000000003
42
0.41421356237309975
10
-126.90000000000001
20
30.812500000000004
10
-139.80000000000001
20
30.812500000000096
42
0.41421356237308082
0
LWPOLYLINE
5
226
100
AcDbEntity
8
0
100
AcDbPolyline
90
8
70
1
43
0.0
10
-230.28750000000002
20
54.912500000000108
10
-217.38749999999999
20
54.912500000000009
42
0.41421356237315654
10
-216.83750000000003
20
55.462500000000105
10
-216.83750000000006
20
68.362499999999997
42
0.41421356237314239
10
-217.38749999999999
20
68.912499999999994
10
-230.28750000000002
20
68.912499999999994
42
0.41421356237310453
10
-230.83750000000003
20
68.362499999999997
10
-230.83749999999995
20
55.462500000000006
42
0.4142135623730856
0
LWPOLYLINE
5
227
100
AcDbEntity
8
0
100
AcDbPolyline
90
8
70
1
43
0.0
10
-88.250000000000099
20
17.362500000000001
42
-0.41421356237309154
10
-88.800000000000097
20
16.812500000000004
10
-101.70000000000002
20
16.81250000000011
42
-0.41421356237309154
10
-102.25000000000001
20
17.3625000000001
10
-102.25000000000001
20
30.262500000000003
42
-0.41421356237309037
10
-101.70000000000002
20
30.8125
10
-88.800000000000011
20
30.812499999999968
42
-0.41421356237309742
10
-88.250000000000043
20
30.262500000000003
0
LWPOLYLINE
5
228
100
AcDbEntity
8
0
100
AcDbPolyline
90
8
70
1
43
0.0
10
-322.16250000000002
20
49.862500000000097
10
-335.0625
20
49.862499999999905
42
0.4142135623730856
10
-335.61250000000001
20
49.3125
10
-335.61249999999995
20
36.412500000000101
42
0.4142135623732322
10
-335.0625
20
35.862499999999997
10
-322.16250000000002
20
35.862500000000075
42
0.41421356237310686
10
-321.61250000000001
20
36.412499999999909
10
-321.61249999999995
20
49.3125
42
0.41421356237302881
0
LWPOLYLINE
5
229
100
AcDbEntity
8
0
100
AcDbPolyline
90
8
70
1
43
0.0
10
-216.55000000000001
20
30.262500000000202
10
-216.55000000000001
20
17.3625000000001
42
0.41421356237318846
10
-216
20
16.8125
10
-203.10000000000002
20
16.812500000000075
42
0.41421356237303708
10
-202.55000000000001
20
17.362499999999905
10
-202.54999999999998
20
30.262500000000003
42
0.4142135623730927
10
-203.10000000000002
20
30.812500000000004
10
-216
20
30.812500000000071
42
0.41421356237296736
0
LWPOLYLINE
5
230
100
AcDbEntity
8
0
100
AcDbPolyline
90
8
70
1
43
0.0
10
-297.51249999999999
20
6.4500000000000703
10
-297.51249999999999
20
-6.4499999999998501
42
0.41421356237309442
10
-296.96249999999998
20
-6.999999999999921
10
-284.0625
20
-6.9999999999999885
42
0.41421356237314239
10
-283.51249999999999
20
-6.4499999999998492
10
-283.51250000000005
20
6.4500000000000712
42
0.4142135623730927
10
-284.0625
20
7.0000000000000302
10
-296.96249999999998
20
6.9999999999998845
42
0.41421356237314055
0
LWPOLYLINE
5
231
100
AcDbEntity
8
0
100
AcDbPolyline
90
8
70
1
43
0.0
10
-59.387499999999982
20
106.46250000000002
42
-0.4142135623730856
10
-58.837499999999999
20
107.01250000000002
10
-45.9375
20
107.01249999999995
42
-0.41421356237307611
10
-45.387500000000074
20
106.46250000000002
10
-45.387500000000017
20
93.562500000000099
42
-0.4142135623730856
10
-45.9375
20
93.012500000000102
10
-58.837499999999999
20
93.012500000000017
42
-0.41421356237312346
10
-59.387499999999996
20
93.562500000000099
0
LWPOLYLINE
5
232
100
AcDbEntity
8
0
100
AcDbPolyline
90
8
70
1
43
0.0
10
-97.774999999999949
20
36.412500000000001
42
-0.4142135623730927
10
-98.325000000000017
20
35.862499999999933
10
-111.22499999999999
20
35.862499999999997
42
-0.41421356237308082
10
-111.77500000000001
20
36.412500000000001
10
-111.77500000000002
20
49.3125
42
-0.41421356237315654
10
-111.22500000000001
20
49.862500000000097
10
-98.325000000000017
20
49.862499999999997
42
-0.41421356237307611
10
-97.77500000000002
20
49.3125
0
LWPOLYLINE
5
233
100
AcDbEntity
8
0
100
AcDbPolyline
90
8
70
1
43
0.0
10
-36.412500000000001
20
87.962500000000006
10
-49.3125
20
87.962500000000006
42
0.41421356237307611
10
-49.862499999999997
20
87.412500000000094
10
-49.862499999999997
20
74.512500000000003
42
0.41421356237307611
10
-49.3125
20
73.962500000000006
10
-36.412500000000001
20
73.962500000000077
42
0.41421356237310214
10
-35.862499999999997
20
74.512500000000003
10
-35.862500000000004
20
87.412500000000094
42
0.41421356237308082
0
LWPOLYLINE
5
234
100
AcDbEntity
8
0
100
AcDbPolyline
90
8
70
1
43
0.0
10
-335.61250000000001
20
6.4500000000000712
42
-0.41421356237314588
10
-335.0625
20
7.0000000000000284
10
-322.16250000000002
20
7.0000000000000382
42
-0.41421356237308027
10
-321.61250000000007
20
6.4500000000001396
10
-321.61250000000018
20
-6.4499999999998519
42
-0.41421356237317425
10
-322.16250000000002
20
-6.9999999999998552
10
-335.0625
20
-7.0000000000001039
42
-0.41421356237304241
10
-335.61250000000024
20
-6.4499999999998501
0
LWPOLYLINE
5
235
100
AcDbEntity
8
0
100
AcDbPolyline
90
8
70
1
43
0.0
10
-26.337499999999999
20
55.462500000000006
42
-0.41421356237308321
10
-26.887500000000003
20
54.912500000000009
10
-39.787500000000001
20
54.912500000000009
42
-0.41421356237309503
10
-40.337499999999991
20
55.462500000000006
10
-40.337499999999991
20
68.362499999999997
42
-0.41421356237309503
10
-39.787500000000001
20
68.912499999999994
10
-26.887500000000003
20
68.912499999999923
42
-0.41421356237309742
10
-26.337500000000077
20
68.362499999999997
0
LWPOLYLINE
5
236
100
AcDbEntity
8
0
100
AcDbPolyline
90
8
70
1
43
0.0
10
-83.200000000000003
20
6.4500000000000002
10
-83.200000000000003
20
-6.4500000000000002
42
0.41421356237309154
10
-82.650000000000006
20
-6.9999999999999911
10
-69.750000000000099
20
-7.0000000000000684
42
0.41421356237309387
10
-69.200000000000003
20
-6.4500000000000002
10
-69.200000000000102
20
6.4500000000000002
42
0.41421356237308676
10
-69.750000000000099
20
6.9999999999999911
10
-82.650000000000006
20
6.9999999999999973
42
0.41421356237309154
0
LWPOLYLINE
5
237
100
AcDbEntity
8
0
100
AcDbPolyline
90
8
70
1
43
0.0
10
-6.4500000000000304
20
-6.9999999999999973
42
-0.4142135623730962
10
-7.0000000000000275
20
-6.4500000000000002
10
-7.0000000000000959
20
6.4500000000000002
42
-0.4142135623730962
10
-6.4500000000000988
20
6.9999999999999973
10
6.4499999999999611
20
6.9999999999999973
42
-0.4142135623730962
10
6.9999999999999583
20
6.4500000000000002
10
6.9999999999999583
20
-6.4500000000000002
42
-0.4142135623730962
10
6.4499999999999611
20
-6.9999999999999973
0
LWPOLYLINE
5
238
100
AcDbEntity
8
0
100
AcDbPolyline
90
8
70
1
43
0.0
10
-97.487500000000011
20
68.362499999999997
10
-97.487500000000011
20
55.462500000000006
42
0.4142135623730856
10
-96.937500000000014
20
54.912500000000009
10
-84.037500000000009
20
54.912500000000009
42
0.41421356237307611
10
-83.487500000000011
20
55.462500000000006
10
-83.487500000000011
20
68.362499999999997
42
0.41421356237307611
10
-84.037500000000009
20
68.912499999999994
10
-96.937500000000014
20
68.912499999999994
42
0.4142135623730856
0
LWPOLYLINE
5
239
100
AcDbEntity
8
0
100
AcDbPolyline
90
8
70
1
43
0.0
10
-35.024999999999899
20
35.862500000000011
42
-0.41421356237314472
10
-35.574999999999996
20
36.412500000000001
10
-35.575000000000038
20
49.3125
42
-0.41421356237308793
10
-35.024999999999999
20
49.86250000000004
10
-22.125
20
49.862499999999997
42
-0.41421356237308793
10
-21.575000000000003
20
49.3125
10
-21.574999999999996
20
36.412500000000001
42
-0.41421356237309742
10
-22.125
20
35.862500000000004
0
LWPOLYLINE
5
240
100
AcDbEntity
8
0
100
AcDbPolyline
90
8
70
1
43
0.0
10
-26.050000000000004
20
30.262500000000003
42
-0.41421356237309742
10
-25.500000000000004
20
30.8125
10
-12.6
20
30.8125
42
-0.4142135623730962
10
-12.050000000000002
20
30.262500000000003
10
-12.050000000000104
20
17.362500000000001
42
-0.41421356237309742
10
-12.600000000000101
20
16.812500000000004
10
-25.5
20
16.812499999999964
42
-0.4142135623730962
10
-26.050000000000036
20
17.362500000000001
0
LWPOLYLINE
5
241
100
AcDbEntity
8
0
100
AcDbPolyline
90
8
70
1
43
0.0
10
-107.84999999999999
20
30.812500000000004
10
-120.75000000000001
20
30.812500000000099
42
0.4142135623730927
10
-121.30000000000001
20
30.262500000000003
10
-121.30000000000011
20
17.362500000000001
42
0.41421356237304069
10
-120.75000000000001
20
16.8125
10
-107.84999999999999
20
16.812500000000032
42
0.41421356237304069
10
-107.30000000000001
20
17.362500000000001
10
-107.30000000000001
20
30.262500000000003
42
0.41421356237309037
0
LWPOLYLINE
5
242
100
AcDbEntity
8
0
100
AcDbPolyline
90
8
70
1
43
0.0
10
-136.42500000000001
20
7.0000000000000604
10
-149.32499999999999
20
7.0000000000000302
42
0.41421356237308204
10
-149.875
20
6.4500000000000313
10
-149.875
20
-6.4500000000000002
42
0.41421356237308204
10
-149.32499999999999
20
-6.9999999999999911
10
-136.42500000000001
20
-6.9999999999999973
42
0.41421356237309154
10
-135.875
20
-6.4500000000000002
10
-135.875
20
6.4500000000000002
42
0.41421356237309326
0
LWPOLYLINE
5
243
100
AcDbEntity
8
0
100
AcDbPolyline
90
8
70
1
43
0.0
10
-50.700000000000003
20
30.812500000000004
10
-63.600000000000001
20
30.812500000000004
42
0.4142135623730856
10
-64.150000000000006
20
30.262500000000003
10
-64.150000000000134
20
17.362500000000001
42
0.41421356237308676
10
-63.600000000000101
20
16.8125
10
-50.700000000000109
20
16.812500000000004
42
0.41421356237308676
10
-50.150000000000105
20
17.362500000000001
10
-50.150000000000006
20
30.262500000000003
42
0.4142135623730856
0
LWPOLYLINE
5
244
100
AcDbEntity
8
0
100
AcDbPolyline
90
8
70
1
43
0.0
10
-303.11250000000001
20
49.862499999999912
42
-0.4142135623730856
10
-302.56250000000011
20
49.3125
10
-302.5625
20
36.412500000000001
42
-0.41421356237300755
10
-303.11250000000001
20
35.862500000000068
10
-316.01249999999999
20
35.862500000000111
42
-0.41421356237311396
10
-316.56249999999977
20
36.412500000000001
10
-316.5625
20
49.312500000000099
42
-0.41421356237310453
10
-316.01249999999999
20
49.862500000000097
0
LWPOLYLINE
5
245
100
AcDbEntity
8
0
100
AcDbPolyline
90
8
70
1
43
0.0
10
-60.225000000000009
20
49.862499999999997
42
-0.41421356237307611
10
-59.675000000000011
20
49.3125
10
-59.675000000000011
20
36.412500000000001
42
-0.4142135623730856
10
-60.225000000000009
20
35.862500000000004
10
-73.125
20
35.862500000000004
42
-0.4142135623730856
10
-73.674999999999997
20
36.412500000000001
10
-73.674999999999997
20
49.3125
42
-0.41421356237307611
10
-73.125
20
49.862499999999997
0
LWPOLYLINE
5
246
100
AcDbEntity
8
0
100
AcDbPolyline
90
8
70
1
43
0.0
10
6.4500000000000322
20
30.8125
42
-0.41421356237309559
10
7.0000000000000293
20
30.262500000000003
10
6.9999999999999574
20
17.362500000000001
42
-0.41421356237309687
10
6.4499999999999611
20
16.812500000000004
10
-6.4500000000000304
20
16.812500000000004
42
-0.41421356237309687
10
-7.0000000000000275
20
17.362500000000001
10
-6.9999999999999538
20
30.262500000000003
42
-0.41421356237305601
10
-6.4500000000000304
20
30.8125
0
LWPOLYLINE
5
247
100
AcDbEntity
8
0
100
AcDbPolyline
90
8
70
1
43
0.0
10
-243.03125
20
74.512500000000003
10
-243.03125
20
87.412500000000094
42
0.41421356237312346
10
-243.58125000000001
20
87.962500000000119
10
-256.48124999999999
20
87.962500000000134
42
0.41421356237312346
10
-257.03125
20
87.412500000000094
10
-257.03124999999977
20
74.512500000000003
42
0.41421356237306195
10
-256.48124999999999
20
73.962500000000304
10
-243.58125000000001
20
73.962500000000034
42
0.41421356237304302
0
LWPOLYLINE
5
248
100
AcDbEntity
8
0
100
AcDbPolyline
90
8
70
1
43
0.0
10
-54.075000000000003
20
35.86250000000004
42
-0.41421356237309742
10
-54.624999999999972
20
36.412500000000001
10
-54.625
20
49.3125
42
-0.41421356237307611
10
-54.075000000000003
20
49.862499999999997
10
-41.174999999999997
20
49.862499999999997
42
-0.41421356237307611
10
-40.625
20
49.3125
10
-40.625
20
36.412500000000001
42
-0.4142135623730856
10
-41.174999999999997
20
35.862500000000004
0
LWPOLYLINE
5
249
100
AcDbEntity
8
0
100
AcDbPolyline
90
8
70
1
43
0.0
10
-335.0625
20
93.012500000000045
42
-0.41421356237316126
10
-335.61250000000007
20
93.562500000000099
10
-335.61250000000001
20
106.46250000000002
42
-0.41421356237315182
10
-335.0625
20
107.01250000000002
10
-322.16250000000002
20
107.01249999999993
42
-0.4142135623730856
10
-321.61250000000007
20
106.46250000000002
10
-321.61249999999995
20
93.562500000000099
42
-0.41421356237316126
10
-322.16250000000002
20
93.012500000000031
0
LWPOLYLINE
5
250
100
AcDbEntity
8
0
100
AcDbPolyline
90
8
70
1
43
0.0
10
-155.47499999999997
20
49.862500000000061
42
-0.41421356237315654
10
-154.92500000000004
20
49.3125
10
-154.92500000000001
20
36.412500000000001
42
-0.41421356237309037
10
-155.47499999999999
20
35.862500000000004
10
-168.37500000000003
20
35.862500000000018
42
-0.41421356237312579
10
-168.92500000000001
20
36.412500000000001
10
-168.92499999999995
20
49.3125
42
-0.41421356237314239
10
-168.37500000000003
20
49.862500000000026
0
LWPOLYLINE
5
251
100
AcDbEntity
8
0
100
AcDbPolyline
90
8
70
1
43
0.0
10
-63.600000000000101
20
-7
42
-0.41421356237308676
10
-64.150000000000091
20
-6.4500000000000002
10
-64.150000000000091
20
6.4500000000000002
42
-0.41421356237308676
10
-63.600000000000101
20
6.9999999999999973
10
-50.700000000000109
20
7
42
-0.41421356237308676
10
-50.150000000000112
20
6.4500000000000002
10
-50.150000000000112
20
-6.4500000000000002
42
-0.41421356237308676
10
-50.700000000000109
20
-6.9999999999999973
0
LWPOLYLINE
5
252
100
AcDbEntity
8
0
100
AcDbPolyline
90
8
70
1
43
0.0
10
-303.11250000000001
20
87.962500000000091
42
-0.41421356237296264
10
-302.56249999999994
20
87.412500000000207
10
-302.56249999999994
20
74.512500000000003
42
-0.41421356237304302
10
-303.11250000000001
20
73.962500000000034
10
-316.01249999999999
20
73.962500000000375
42
-0.41421356237312812
10
-316.56249999999966
20
74.512500000000003
10
-316.56250000000006
20
87.412500000000207
42
-0.41421356237309503
10
-316.01249999999999
20
87.962500000000276
0
LWPOLYLINE
5
253
100
AcDbEntity
8
0
100
AcDbPolyline
90
8
70
1
43
0.0
10
-140.63749999999999
20
55.462500000000006
42
-0.4142135623730383
10
-141.1875
20
54.912500000000108
10
-154.08750000000001
20
54.912500000000072
42
-0.41421356237306195
10
-154.63750000000005
20
55.462500000000006
10
-154.63750000000007
20
68.362499999999997
42
-0.41421356237309503
10
-154.08750000000001
20
68.912500000000065
10
-141.1875
20
68.912499999999994
42
-0.41421356237307611
10
-140.63750000000002
20
68.362499999999997
0
LWPOLYLINE
5
254
100
AcDbEntity
8
0
100
AcDbPolyline
90
8
70
1
43
0.0
10
-207.86250000000001
20
107.01250000000002
10
-220.76250000000002
20
107.01250000000002
42
0.41421356237309503
10
-221.3125
20
106.46250000000002
10
-221.31249999999994
20
93.562500000000099
42
0.41421356237306667
10
-220.76250000000002
20
93.012500000000102
10
-207.86250000000001
20
93.012500000000088
42
0.41421356237314239
10
-207.31250000000003
20
93.562500000000099
10
-207.31249999999994
20
106.46250000000002
42
0.41421356237309503
0
LWPOLYLINE
5
255
100
AcDbEntity
8
0
100
AcDbPolyline
90
8
70
1
43
0.0
10
-268.9375
20
106.46250000000002
10
-268.9375
20
93.562500000000099
42
0.41421356237316126
10
-268.38749999999999
20
93.012500000000102
10
-255.48750000000001
20
93.012500000000088
42
0.41421356237316126
10
-254.93750000000003
20
93.562500000000099
10
-254.93749999999994
20
106.46250000000002
42
0.41421356237307611
10
-255.48750000000001
20
107.01250000000002
10
-268.38749999999999
20
107.01250000000002
42
0.41421356237310453
0
LWPOLYLINE
5
256
100
AcDbEntity
8
0
100
AcDbPolyline
90
8
70
1
43
0.0
10
-302.5625
20
93.562500000000099
10
-302.5625
20
106.46250000000002
42
0.41421356237306667
10
-303.11250000000001
20
107.01250000000002
10
-316.01249999999999
20
107.01250000000016
42
0.41421356237305718
10
-316.5625
20
106.46250000000002
10
-316.56249999999994
20
93.562500000000099
42
0.41421356237314239
10
-316.01249999999999
20
93.012500000000102
10
-303.11250000000001
20
93.012500000000031
42
0.41421356237309503
0
LWPOLYLINE
5
257
100
AcDbEntity
8
0
100
AcDbPolyline
90
8
70
1
43
0.0
10
-302.5625
20
17.3625000000001
10
-302.5625
20
30.262500000000202
42
0.41421356237304069
10
-303.11250000000001
20
30.812500000000099
10
-316.01249999999999
20
30.812500000000107
42
0.41421356237307611
10
-316.5625
20
30.262500000000099
10
-316.56249999999994
20
17.3625000000001
42
0.41421356237308793
10
-316.01249999999999
20
16.812500000000199
10
-303.11250000000001
20
16.812500000000131
42
0.41421356237303947
0
LWPOLYLINE
5
258
100
AcDbEntity
8
0
100
AcDbPolyline
90
8
70
1
43
0.0
10
-335.0625
20
16.8125
10
-322.16250000000002
20
16.812500000000099
42
0.41421356237302531
10
-321.61250000000001
20
17.3625000000001
10
-321.61250000000007
20
30.262500000000099
42
0.41421356237309037
10
-322.16250000000002
20
30.812500000000004
10
-335.0625
20
30.812500000000096
42
0.41421356237315415
10
-335.61250000000001
20
30.262500000000099
10
-335.61249999999995
20
17.3625000000001
42
0.41421356237310453
0
LWPOLYLINE
5
259
100
AcDbEntity
8
0
100
AcDbPolyline
90
8
70
1
43
0.0
10
-69.75
20
30.812500000000004
10
-82.64999999999992
20
30.812500000000004
42
0.4142135623730927
10
-83.200000000000003
20
30.262500000000003
10
-83.200000000000003
20
17.362500000000001
42
0.41421356237309154
10
-82.650000000000006
20
16.8125
10
-69.750000000000099
20
16.812500000000004
42
0.41421356237308676
10
-69.200000000000102
20
17.362500000000001
10
-69.199999999999974
20
30.262500000000003
42
0.41421356237309503
0
LWPOLYLINE
5
260
100
AcDbEntity
8
0
100
AcDbPolyline
90
8
70
1
43
0.0
10
-303.11250000000001
20
7.0000000000000302
10
-316.01249999999999
20
7.0000000000001004
42
0.41421356237299689
10
-316.5625
20
6.4500000000000712
10
-316.56249999999989
20
-6.4500000000000002
42
0.41421356237312995
10
-316.01249999999999
20
-6.9999999999998508
10
-303.11250000000001
20
-6.9999999999999183
42
0.41421356237309503
10
-302.5625
20
-6.4499999999998492
10
-302.56249999999994
20
6.4499999999999602
42
0.41421356237309387
0
LWPOLYLINE
5
261
100
AcDbEntity
8
0
100
AcDbPolyline
90
8
70
1
43
0.0
10
-297.51249999999993
20
30.262500000000003
42
-0.41421356237314949
10
-296.96249999999998
20
30.81250000000006
10
-284.0625
20
30.812499999999918
42
-0.41421356237309037
10
-283.51250000000005
20
30.262500000000003
10
-283.51249999999999
20
17.3625000000001
42
-0.41421356237312695
10
-284.0625
20
16.812500000000103
10
-296.96249999999998
20
16.812499999999936
42
-0.41421356237314705
10
-297.51250000000005
20
17.3625000000001
0
LWPOLYLINE
5
262
100
AcDbEntity
8
0
100
AcDbPolyline
90
8
70
1
43
0.0
10
-297.51249999999999
20
106.46250000000002
10
-297.51249999999999
20
93.562500000000099
42
0.41421356237318019
10
-296.96249999999998
20
93.012500000000102
10
-284.0625
20
93.012500000000031
42
0.41421356237309503
10
-283.51249999999999
20
93.562500000000099
10
-283.51250000000005
20
106.46250000000002
42
0.41421356237306667
10
-284.0625
20
107.01250000000002
10
-296.96249999999998
20
107.01250000000002
42
0.41421356237310453
0
LWPOLYLINE
5
263
100
AcDbEntity
8
0
100
AcDbPolyline
90
8
70
1
43
0.0
10
-126.90000000000001
20
107.01250000000002
10
-139.80000000000001
20
107.01250000000002
42
0.4142135623730856
10
-140.34999999999999
20
106.46250000000002
10
-140.35000000000008
20
93.562500000000099
42
0.41421356237309503
10
-139.80000000000001
20
93.012500000000017
10
-126.90000000000001
20
93.012500000000031
42
0.41421356237309503
10
-126.34999999999999
20
93.562500000000099
10
-126.35000000000002
20
106.46250000000002
42
0.41421356237309503
0
LWPOLYLINE
5
264
100
AcDbEntity
8
0
100
AcDbPolyline
90
8
70
1
43
0.0
10
-130.27500000000001
20
-7.0000000000000089
42
-0.41421356237308204
10
-130.82500000000002
20
-6.4500000000000002
10
-130.82500000000002
20
6.4500000000000002
42
-0.41421356237311396
10
-130.27500000000001
20
7.0000000000000284
10
-117.375
20
7.0000000000000213
42
-0.41421356237309154
10
-116.82500000000002
20
6.4500000000000313
10
-116.82500000000002
20
-6.4500000000000002
42
-0.41421356237309154
10
-117.375
20
-6.9999999999999973
0
LWPOLYLINE
5
265
100
AcDbEntity
8
0
100
AcDbPolyline
90
8
70
1
43
0.0
10
-149.32499999999999
20
35.862499999999997
10
-136.42500000000001
20
35.862499999999997
42
0.41421356237309037
10
-135.875
20
36.412500000000001
10
-135.87500000000003
20
49.3125
42
0.4142135623730856
10
-136.42500000000001
20
49.862500000000097
10
-149.32499999999999
20
49.862500000000097
42
0.41421356237315654
10
-149.875
20
49.3125
10
-149.87500000000006
20
36.412500000000001
42
0.4142135623730927
0
LWPOLYLINE
5
266
100
AcDbEntity
8
0
100
AcDbPolyline
90
8
70
1
43
0.0
10
-261.24374999999998
20
54.912500000000044
42
-0.4142135623730383
10
-261.79375000000005
20
55.462500000000006
10
-261.79374999999999
20
68.362499999999997
42
-0.41421356237310453
10
-261.24374999999998
20
68.912499999999994
10
-248.34375
20
68.912500000000065
42
-0.41421356237309503
10
-247.79374999999993
20
68.362499999999997
10
-247.79375000000005
20
55.462500000000006
42
-0.41421356237309503
10
-248.34375
20
54.912500000000044
0
LWPOLYLINE
5
267
100
AcDbEntity
8
0
100
AcDbPolyline
90
8
70
1
43
0.0
10
-245.80574999999999
20
52.912500000000108
10
-239.90575000000004
20
52.9125000000002
42
0.4142135623730856
10
-239.35575
20
53.462500000000105
10
-239.35575000000003
20
67.362500000000097
42
0.41421356237310453
10
-239.90575000000004
20
67.912500000000094
10
-245.80574999999999
20
67.912500000000023
42
0.41421356237309037
10
-246.35575000000003
20
67.362500000000097
10
-246.35574999999994
20
53.462500000000105
42
0.41421356237316126
0
LWPOLYLINE
5
268
100
AcDbEntity
8
0
100
AcDbPolyline
90
8
70
1
43
0.0
10
-168.37500000000003
20
-6.9999999999999671
42
-0.41421356237315471
10
-168.92499999999995
20
-6.4500000000000002
10
-168.92500000000001
20
6.4500000000001396
42
-0.41421356237308909
10
-168.37500000000003
20
7.0000000000000684
10
-155.47499999999999
20
7.0000000000000213
42
-0.41421356237309154
10
-154.92500000000001
20
6.4500000000000313
10
-154.92500000000007
20
-6.4500000000000002
42
-0.41421356237307849
10
-155.47499999999999
20
-6.9999999999999263
0
LWPOLYLINE
5
269
100
AcDbEntity
8
0
100
AcDbPolyline
90
8
70
1
43
0.0
10
-283.51249999999999
20
36.412500000000001
10
-283.51249999999999
20
49.3125
42
0.41421356237314705
10
-284.0625
20
49.862500000000097
10
-296.96249999999998
20
49.862500000000068
42
0.41421356237304302
10
-297.51249999999999
20
49.312500000000099
10
-297.51250000000005
20
36.412500000000101
42
0.41421356237314472
10
-296.96249999999998
20
35.862499999999997
10
-284.0625
20
35.862500000000004
42
0.41421356237312579
0
LWPOLYLINE
5
270
100
AcDbEntity
8
0
100
AcDbPolyline
90
8
70
1
43
0.0
10
-79.275000000000006
20
49.862499999999969
42
-0.41421356237310453
10
-78.725000000000051
20
49.3125
10
-78.725000000000009
20
36.412500000000001
42
-0.4142135623730856
10
-79.275000000000006
20
35.862500000000004
10
-92.174999999999983
20
35.862499999999997
42
-0.41421356237308082
10
-92.724999999999994
20
36.412500000000001
10
-92.724999999999994
20
49.3125
42
-0.41421356237307611
10
-92.174999999999997
20
49.862499999999997
0
LWPOLYLINE
5
271
100
AcDbEntity
8
0
100
AcDbPolyline
90
8
70
1
43
0.0
10
-174.52500000000001
20
49.862500000000082
42
-0.41421356237321327
10
-173.97500000000002
20
49.3125
10
-173.97500000000008
20
36.412500000000001
42
-0.41421356237307377
10
-174.52500000000001
20
35.86250000000004
10
-187.42500000000004
20
35.862500000000082
42
-0.41421356237309037
10
-187.97499999999997
20
36.412500000000001
10
-187.97499999999999
20
49.3125
42
-0.41421356237315654
10
-187.42500000000004
20
49.862500000000097
0
LWPOLYLINE
5
272
100
AcDbEntity
8
0
100
AcDbPolyline
90
8
70
1
43
0.0
10
-187.55000000000001
20
106.0125
10
-193.44999999999999
20
106.0125
42
0.41421356237310453
10
-194.00000000000003
20
105.46250000000001
10
-193.99999999999991
20
91.5625
42
0.4142135623730383
10
-193.44999999999999
20
91.012500000000202
10
-187.55000000000001
20
91.012500000000074
42
0.41421356237312346
10
-187
20
91.562500000000114
10
-186.99999999999994
20
105.46250000000001
42
0.41421356237309503
0
LWPOLYLINE
5
273
100
AcDbEntity
8
0
100
AcDbPolyline
90
8
70
1
43
0.0
10
-254.93750000000009
20
36.412500000000001
42
-0.41421356237309037
10
-255.48750000000001
20
35.862500000000075
10
-268.38749999999999
20
35.862500000000097
42
-0.4142135623730856
10
-268.9375
20
36.412500000000001
10
-268.93749999999994
20
49.312500000000099
42
-0.41421356237309037
10
-268.38749999999999
20
49.862500000000026
10
-255.48750000000001
20
49.862500000000118
42
-0.41421356237315654
10
-254.93750000000003
20
49.3125
0
LWPOLYLINE
5
274
100
AcDbEntity
8
0
100
AcDbPolyline
90
8
70
1
43
0.0
10
-263.625
20
16.812500000000099
10
-250.72500000000002
20
16.8125
42
0.41421356237303592
10
-250.17500000000001
20
17.362500000000001
10
-250.17499999999995
20
30.262500000000003
42
0.41421356237307377
10
-250.72500000000002
20
30.812500000000099
10
-263.625
20
30.812500000000036
42
0.41421356237306434
10
-264.17500000000007
20
30.262500000000003
10
-264.17499999999995
20
17.362500000000001
42
0.41421356237308909
0
LWPOLYLINE
5
275
100
AcDbEntity
8
0
100
AcDbPolyline
90
8
70
1
43
0.0
10
-150.16249999999994
20
74.512500000000003
42
-0.41421356237304302
10
-150.71250000000001
20
73.962500000000034
10
-163.61250000000001
20
73.962500000000091
42
-0.41421356237309037
10
-164.16249999999994
20
74.512500000000003
10
-164.16250000000002
20
87.412500000000094
42
-0.41421356237309503
10
-163.61250000000001
20
87.962500000000091
10
-150.71250000000001
20
87.962500000000091
42
-0.41421356237307611
10
-150.16250000000002
20
87.412500000000094
0
LWPOLYLINE
5
276
100
AcDbEntity
8
0
100
AcDbPolyline
90
8
70
1
43
0.0
10
-54.912500000000009
20
74.512500000000003
10
-54.912500000000009
20
87.412500000000094
42
0.41421356237307611
10
-55.462500000000006
20
87.962500000000006
10
-68.362499999999997
20
87.96250000000002
42
0.41421356237307611
10
-68.912499999999895
20
87.412500000000094
10
-68.912499999999994
20
74.512500000000003
42
0.41421356237307611
10
-68.362499999999997
20
73.962500000000006
10
-55.462500000000006
20
73.962500000000077
42
0.41421356237309975
0
LWPOLYLINE
5
277
100
AcDbEntity
8
0
100
AcDbPolyline
90
8
70
1
43
0.0
10
-130.27500000000001
20
35.862499999999997
10
-117.375
20
35.862499999999997
42
0.41421356237302409
10
-116.82500000000002
20
36.412500000000001
10
-116.82500000000002
20
49.3125
42
0.41421356237314705
10
-117.375
20
49.862500000000097
10
-130.27500000000001
20
49.862500000000068
42
0.41421356237309503
10
-130.82499999999999
20
49.3125
10
-130.82500000000002
20
36.412500000000001
42
0.41421356237308082
0
LWPOLYLINE
5
278
100
AcDbEntity
8
0
100
AcDbPolyline
90
8
70
1
43
0.0
10
-235.05000000000001
20
-7.0000000000000071
42
-0.41421356237310508
10
-235.60000000000002
20
-6.4499999999999202
10
-235.60000000000008
20
6.4500000000000313
42
-0.41421356237310686
10
-235.05000000000001
20
7.0000000000000684
10
-222.15000000000003
20
7.0000000000001092
42
-0.4142135623730826
10
-221.60000000000008
20
6.4500000000001005
10
-221.59999999999997
20
-6.4499999999999202
42
-0.41421356237309387
10
-222.15000000000003
20
-6.9999999999999885
0
LWPOLYLINE
5
279
100
AcDbEntity
8
0
100
AcDbPolyline
90
8
70
1
43
0.0
10
-87.412499999999994
20
73.962500000000006
42
-0.41421356237307611
10
-87.962499999999991
20
74.512500000000003
10
-87.96249999999992
20
87.412500000000094
42
-0.41421356237307611
10
-87.412499999999994
20
87.96250000000002
10
-74.512500000000003
20
87.962500000000091
42
-0.41421356237307611
10
-73.962500000000006
20
87.412500000000094
10
-73.962500000000077
20
74.512500000000003
42
-0.41421356237310453
10
-74.512500000000003
20
73.962500000000077
0
LWPOLYLINE
5
280
100
AcDbEntity
8
0
100
AcDbPolyline
90
8
70
1
43
0.0
10
-116.53750000000001
20
68.362499999999997
10
-116.53750000000001
20
55.462500000000006
42
0.41421356237307611
10
-115.98750000000001
20
54.912500000000009
10
-103.08750000000002
20
54.912500000000115
42
0.41421356237308082
10
-102.53749999999999
20
55.462500000000006
10
-102.53750000000002
20
68.362499999999997
42
0.41421356237307611
10
-103.08750000000002
20
68.912499999999994
10
-115.98750000000001
20
68.912500000000065
42
0.41421356237309503
0
LWPOLYLINE
5
281
100
AcDbEntity
8
0
100
AcDbPolyline
90
8
70
1
43
0.0
10
-187.97499999999999
20
6.4500000000000313
10
-187.97499999999999
20
-6.4500000000000002
42
0.41421356237312695
10
-187.42500000000004
20
-6.9999999999999911
10
-174.52500000000001
20
-6.9999999999999973
42
0.41421356237308793
10
-173.97500000000002
20
-6.4500000000000712
10
-173.97500000000008
20
6.4500000000000313
42
0.41421356237312934
10
-174.52500000000001
20
6.9999999999999911
10
-187.42500000000004
20
7.0000000000001688
42
0.41421356237314055
0
LWPOLYLINE
5
282
100
AcDbEntity
8
0
100
AcDbPolyline
90
8
70
1
43
0.0
10
-202.26249999999999
20
87.412500000000094
10
-202.26249999999999
20
74.512500000000003
42
0.41421356237309037
10
-201.71250000000001
20
73.962500000000105
10
-188.8125
20
73.962500000000034
42
0.41421356237304302
10
-188.26249999999999
20
74.512500000000003
10
-188.26249999999993
20
87.412500000000094
42
0.41421356237309503
10
-188.8125
20
87.962500000000006
10
-201.71250000000001
20
87.962500000000091
42
0.41421356237309503
0
LWPOLYLINE
5
283
100
AcDbEntity
8
0
100
AcDbPolyline
90
8
70
1
43
0.0
10
-183.5
20
17.362500000000001
42
-0.41421356237312695
10
-184.05000000000001
20
16.812500000000004
10
-196.94999999999999
20
16.812500000000053
42
-0.41421356237312223
10
-197.49999999999994
20
17.3625000000001
10
-197.49999999999997
20
30.262500000000003
42
-0.41421356237314949
10
-196.94999999999999
20
30.81250000000006
10
-184.05000000000001
20
30.812499999999918
42
-0.41421356237309037
10
-183.50000000000009
20
30.262500000000003
0
LWPOLYLINE
5
284
100
AcDbEntity
8
0
100
AcDbPolyline
90
8
70
1
43
0.0
10
-77.887500000000003
20
54.912500000000009
10
-64.987499999999997
20
54.912500000000009
42
0.41421356237307611
10
-64.4375
20
55.462500000000006
10
-64.4375
20
68.362499999999997
42
0.41421356237307611
10
-64.987499999999997
20
68.912499999999994
10
-77.887500000000003
20
68.912499999999994
42
0.41421356237307611
10
-78.4375
20
68.362499999999997
10
-78.4375
20
55.462500000000006
42
0.41421356237307611
0
LWPOLYLINE
5
285
100
AcDbEntity
8
0
100
AcDbPolyline
90
8
70
1
43
0.0
10
-31.100000000000101
20
17.362500000000001
42
-0.41421356237309859
10
-31.650000000000102
20
16.812500000000004
10
-44.550000000000097
20
16.812500000000039
42
-0.41421356237310453
10
-45.100000000000058
20
17.362500000000001
10
-45.099999999999994
20
30.262500000000003
42
-0.4142135623730856
10
-44.549999999999997
20
30.8125
10
-31.649999999999999
20
30.8125
42
-0.41421356237309503
10
-31.100000000000001
20
30.262500000000003
0
LWPOLYLINE
5
286
100
AcDbEntity
8
0
100
AcDbPolyline
90
8
70
1
43
0.0
10
2.2375000000000309
20
93.562500000000099
10
2.2375000000000309
20
106.46250000000002
42
0.41421356237309154
10
1.6875000000000306
20
107.01250000000002
10
-11.2125
20
107.01250000000002
42
0.41421356237309154
10
-11.762499999999999
20
106.46250000000002
10
-11.762499999999998
20
93.562500000000014
42
0.41421356237308321
10
-11.212499999999999
20
93.012500000000017
10
1.6874999999999614
20
93.012500000000017
42
0.41421356237318402
0
LWPOLYLINE
5
287
100
AcDbEntity
8
0
100
AcDbPolyline
90
8
70
1
43
0.0
10
-241.04325000000003
20
74.962500000000034
42
-0.41421356237309503
10
-241.5932500000001
20
75.512500000000102
10
-241.5932500000001
20
89.412500000000094
42
-0.41421356237309503
10
-241.04325000000003
20
89.962500000000162
10
-235.14324999999999
20
89.962500000000091
42
-0.41421356237309503
10
-234.59325000000001
20
89.412500000000094
10
-234.59324999999993
20
75.512500000000102
42
-0.41421356237309503
10
-235.14324999999999
20
74.962500000000034
0
LWPOLYLINE
5
288
100
AcDbEntity
8
0
100
AcDbPolyline
90
8
70
1
43
0.0
10
-221.3125
20
87.412500000000207
10
-221.3125
20
74.512500000000003
42
0.41421356237309503
10
-220.76250000000002
20
73.962500000000006
10
-207.86250000000001
20
73.962500000000006
42
0.41421356237310453
10
-207.31250000000003
20
74.512500000000003
10
-207.31249999999994
20
87.412500000000094
42
0.41421356237309503
10
-207.86250000000001
20
87.962500000000006
10
-220.76250000000002
20
87.962500000000162
42
0.4142135623730383
0
LWPOLYLINE
5
289
100
AcDbEntity
8
0
100
AcDbPolyline
90
8
70
1
43
0.0
10
-203.10000000000002
20
6.9999999999999911
10
-216
20
7.0000000000000604
42
0.41421356237313461
10
-216.55000000000001
20
6.4500000000000712
10
-216.54999999999995
20
-6.4500000000000002
42
0.41421356237313589
10
-216
20
-6.9999999999999911
10
-203.10000000000002
20
-6.9999999999999973
42
0.41421356237313589
10
-202.55000000000001
20
-6.4500000000000002
10
-202.54999999999995
20
6.4500000000000313
42
0.41421356237310686
0
LWPOLYLINE
5
290
100
AcDbEntity
8
0
100
AcDbPolyline
90
8
70
1
43
0.0
10
-145.94999999999999
20
30.812499999999989
42
-0.41421356237309037
10
-145.39999999999998
20
30.262500000000003
10
-145.39999999999998
20
17.362500000000001
42
-0.41421356237309154
10
-145.94999999999999
20
16.812500000000004
10
-158.84999999999999
20
16.812499999999993
42
-0.41421356237308204
10
-159.40000000000001
20
17.362500000000001
10
-159.39999999999998
20
30.262500000000003
42
-0.41421356237308082
10
-158.84999999999999
20
30.8125
0
LWPOLYLINE
5
291
100
AcDbEntity
8
0
100
AcDbPolyline
90
8
70
1
43
0.0
10
-112.0625
20
74.512500000000003
10
-112.0625
20
87.412500000000094
42
0.41421356237309503
10
-112.61250000000001
20
87.962500000000119
10
-125.51250000000002
20
87.962500000000162
42
0.41421356237309503
10
-126.06250000000001
20
87.412500000000094
10
-126.06250000000001
20
74.512500000000003
42
0.41421356237307611
10
-125.51250000000002
20
73.962500000000105
10
-112.61250000000001
20
73.962500000000006
42
0.4142135623730856
0
ENDSEC
0
SECTION
2
OBJECTS
0
DICTIONARY
5
C
100
AcDbDictionary
3
ACAD_GROUP
350
D
3
ACAD_MLINESTYLE
350
17
0
DICTIONARY
5
D
100
AcDbDictionary
0
DICTIONARY
5
1A
330
C
100
AcDbDictionary
0
DICTIONARY
5
17
100
AcDbDictionary
0
ENDSEC
0
EOF
